System Of A Down - Peephole Chords & Tabs

 

Peephole Chords & Tabs

System Of A Down Chords & Tabs

Version: 3 Type: Bass Tab 0 ratings
1 star 2 stars 3 stars 4 stars 5 stars
comments

Peephole Bass Tab

Artist: system of a down
Song: Peephole
Album: self-titled

enjoy this one.  Anyone who has any corrections e-mail me at ihatetweety@msn.com

Intro
G-------------------------------------------------------------------------------------------------------------------------
D---------------------------------33---------------------------33-------------------------------------------------------
A------------23---------23--------------23----------23----------------23--------------------------------------------
E-------1--------33-----------------------------33---------------------------------------------------------------------

Verse
G-------------------------------------------------------------------------------------------------------------------------
D-------------------------------------------------------------------------------------------------------------------------
A-------------------------------------------------------------------------------------------------------------------------
E------5-0-5-0-5-0-5-0----------4-4-4-4--7-7-7-7-7-7-----2x----------------------------------------------------

Pre-Chorus (do you beleive......)
G-------------------------------------------------------------------------------------------------------------------------
D-------------------------------------------------------------3-3-3-3-3-3----------------------------------------------------
A----------------2-2-2-3-3-3----------------2-2-2-3-3-3----------------2-2-2-3-3-3---6-6-6-6-6-6-----4-4-4--3-3-3
E-1-1-1-1-1-1----------------3-3-3-3-3-3-------------------------------------------------------------------------------

Chorus (don't you ever get stuck in the sky)
G-------------------------------------------------------------------------------------------------------------------------
D------------------------------------------------------------------3-3-3-3-3-3------------------------------------------------------3-3-3-3-3-3
A-----------------2-2-2-3-3-3------------------2-2-2-3-3-3-------------------2-2-2-3-3-3-------------------2-2-2-3-3-3----------
E--1-1-1-1-1-1-----------------3-3-3-3-3-3----------------------------------------------------3-3-3-3-3-3-----------------------
[ Tab from: http://www.guitartabs.cc/tabs/s/system_of_a_down/peephole_btab_ver_3.html ]
Intro 
G------------------------------------------------------------------------------------------------------------------------
D---------------------------------33---------------------------33-------------------------------------------------------
A------------23---------23--------------23----------23----------------23--------------------------------------------
E-------1--------33-----------------------------33---------------------------------------------------------------------

Verse
G-------------------------------------------------------------------------------------------------------------------------
D-------------------------------------------------------------------------------------------------------------------------
A-------------------------------------------------------------------------------------------------------------------------
E------5-0-5-0-5-0-5-0----------4-4-4-4--7-7-7-7-7-7-----2x----------------------------------------------------

Pre-Chorus
G-------------------------------------------------------------------------------------------------------------------------
D-----------------------------------------------------------------3-3-3-3-3-3----------------------------------------------------
A-----------------2-2-2-3-3-3-----------------2-2-2-3-3-3-------------------2-2-2-3-3-3---6-6-6-6-6-6-----4-4-4--3-3-3
E-1-1-1-1-1-1-----------------3-3-3-3-3-3-------------------------------------------------------------------------------

Chorus 2x
G-------------------------------------------------------------------------------------------------------------------------
D-----------------------------------------------------------------3-3-3-3-3-3----------------------------------------------------3-3-3-3-3-3
A------------------2-2-2-3-3-3------------------2-2-2-3-3-3----------------2-2-2-3-3-3-------------------2-2-2-3-3-3----------
E--1-1-1-1-1-1------------------3-3-3-3-3-3-------------------------------------------------3-3-3-3-3-3-----------------------

Verse
G-------------------------------------------------------------------------------------------------------------------------
D-------------------------------------------------------------------------------------------------------------------------
A-------------------------------------------------------------------------------------------------------------------------
E------5-0-5-0-5-0-5-0----------4-4-4-4--7-7-7-7-7-7-----2x----------------------------------------------------
 
 Chorus 2xG-------------------------------------------------------------------------------------------------------------------------
D----------------------------------------------------------------3-3-3-3-3-3--------------------------------------------------3-3-3-3-3-3
A-----------------2-2-2-3-3-3------------------2-2-2-3-3-3-----------------2-2-2-3-3-3------------------2-2-2-3-3-3----------
E--1-1-1-1-1-1-----------------3-3-3-3-3-3--------------------------------------------------3-3-3-3-3-3-----------------------
Comments