System Of A Down - Nuguns Chords & Tabs

 

Nuguns Chords & Tabs

System Of A Down Chords & Tabs

Version: 2 Type: Tab 0 ratings
1 star 2 stars 3 stars 4 stars 5 stars
comments

Nuguns Tab

Band:System Of A Down
Song:Nuguns
Tuning:CGCFAD
Tabber:Glenn
pm=palm-mute
/=slide-down
\=slide-up

main riff
-------------
-------------
-------------
-------------
-7--8--10--8-
-7--8--10--8-

chorus
pm..............................
--------------------------------|-------------
--------------------------------|-------------
--------------------------------|-------------
--------------------------------|-------------
--------------------------------|-7--8--10--8-
-7-7-0-0-7-7-0-0-10-10-0-0-8~~~-|-7--8--10--8-
[ Tab from: http://www.guitartabs.cc/tabs/s/system_of_a_down/nuguns_tab_ver_2.html ]
pm............................ 
------------------------------|-------------
------------------------------|-------------
------------------------------|-------------
------------------------------|-------------
------------------------------|-7--8--10--8-
-7-7-8-8-10-10-8-8-7-7-8-8-10-|-7--8--10--8-

bridge
-------------- all these notes are
-------------- harmonics.
--------7---7-
-7---7--------
---5------5---
--------------

verse
pm..................... 
-----------------------|------------- all these notes are
-----------------------|------------- harmonics.
-----7--7-7-----7--7-7-|-----------7-
-----------------------|----7--------
-6-6--------6-6--------|5-5----5-5---
-----------------------|-------------

mandolin part
pm...............               
-----------------|------------- you play this part
-----------------|------------- when you hear all
-----------------|------------- the mandolins or
-----------------|------------- whatever daron is
-----------------|------------- playing.
-0-0-0/--0-0-12\-|-7--8--10--8-
Comments