System Of A Down - Nuguns Chords & Tabs

 

Nuguns Chords & Tabs

System Of A Down Chords & Tabs

Version: 1 Type: Tab 0 ratings
1 star 2 stars 3 stars 4 stars 5 stars
comments

Nuguns Tab

   
-=Nüguns=-Syatem of a down
==========
tabs by Javier Rodríguez
(C-G-C-F-A-D)

A
1:-------------|
2:-------------|
3:-------------|
4:-7--8--10--8-|
5:-7--8--10--8-|
6:-7--8--10--8-|


B
3x:                              1x:
1:------------------------------|-------------|
2:------------------------------|-------------|
3:------------------------------|-------------|
4:------------------------------|-7--8--10--8-|
5:------------------------------|-7--8--10--8-|
6:-7-7-0-0-8-8-0-0-10-10-0-0-8--|-7--8--10--8-|


C
2x:                              1x:                                 1x:
1:------------------------------|-----------------------------------|-------------|
2:------------------------------|-----------------------------------|-------------|
3:------------------------------|-----------------------------------|-------------|
4:------------------------------|-----------------------------------|-7--8--10--8-|
5:------------------------------|-----------------------------------|-7--8--10--8-|
6:-7-0-8-0-10-0-8-0-7-0-8-0-10--|-7-0-8-0-10-0-8-0-7-0-8-0-10-0-8-0-|-7--8--10--8-|


D
1:---------10----10----|
2:------------10----10-|
3:-7---7---------------|
4:---7---7-------------|
5:---------------------|
6:---------------------|

[ Tab from: http://www.guitartabs.cc/tabs/s/system_of_a_down/nuguns_tab.html ]
E
1:------------------------------|
2:------------------------------|
3:-------7--7-7--7-7----7-7-7-7-|
4:------------------------------|
5:-6--6--------------6----------|
6:------------------------------|


F
1:------------------|
2:------------------|
3:------------------|
4:---------------h5-|
5:------h5----------|
6:-0-0------0-0-----|


G
1:--------------------------|
2:--------------------------|
3:--------------------------|
4:-0--0--0/12----0--0--12/0-|
5:-0--0--0/12----0--0--12/0-|
6:-0--0--0/12----0--0--12/0-|


H
1:-------------|
2:-------------|
3:-------------|
4:-------------|
5:-------------|
6:-7--8--10--8-|


I
3x:                                   1x:
1:-----------------------------------|-------------|
2:-----------------------------------|-------------|
3:-----------------------------------|-------------|
4:-----------------------------------|-7--8--10--8-|
5:-----------------------------------|-7--8--10--8-|
6:-7-0-8-0-10-0-8-0-7-0-8-0-10-0-8-0-|-7--8--10--8-|


J
                             pm.
1:--------10--------------10-----|
2:------------10-----------------|
3:-7---------------7-------------|
4:----7---------------7------0-0-|
5:---------------------------0-0-|
6:---------------------------0-0-|


ORDER:
=====

A 3x
B
C
D
E 3x
F 2x
E 3x
D
A
B
C
D
E 3x
F 2x
E 3x
D
A
B
C
D 2x
G 7x
H
G 3x
H
G 3x
A
B
C
B
I
D
J
Comments