System Of A Down - Nuguns Chords & Tabs

 

Nuguns Chords & Tabs

System Of A Down Chords & Tabs

Version: 1 Type: Bass Tab 0 ratings
1 star 2 stars 3 stars 4 stars 5 stars
comments

Nuguns Bass Tab

   
-=Nüguns=- system of a down
===========
tabs by Javier Rodríguez

A:
F|-------------|
C|-------------|
G|-------------|
C|-7--8--10--8-|

B:
F|-----------------------------|
C|-----------------------------|
G|-----------------------------|
C|-7-7-0-0-8-8-0-0-10-10-0-0-8-|

C:
F|-----------------------------|------|-----------------------------------|
C|-----------------------------|------|-----------------------------------|
G|-----------------------------|--%---|-----------------------------------|
C|-7-0-8-0-10-0-8-0-7-0-8-0-10-|------|-7-0-8-0-10-0-8-0-7-0-8-0-10-0-8-0-|

D:
F|-----------|
C|-----------|
G|-----------|
C|-7-7---8-8-|

E:
F|-----------------|
C|-----------------|
G|-6--6----------6-|
C|-----------------|

F:
F|--------------|
C|--------------|
G|--------------|
C|-0-0------0-0-|

[ Tab from: http://www.guitartabs.cc/tabs/s/system_of_a_down/nuguns_btab.html ]
G:
F|---------------------------|
C|---------------------------|
G|---------------------------|
C|-0--0--0/12-----0--0--12/0-|

H:
F|-----------------------------------|
C|-----------------------------------|
G|-----------------------------------|
C|-7-0-8-0-10-0-8-0-7-0-8-0-10-0-8-0-|

I
F|-----|
C|-----|
G|-----|
C|-0-0-|

Order:
=====

A: X3
B: X3
A:
C:
A:
D:
E: X4
F: X2
E: X4
D:
A:
B: X3
A:
C:
A:
D:
E: X4
F: X2
E: X4
D:
A:
B: X3
A:
C:
A:
D: X2
G: X7
A:
G: X3
A:
G: X3
A:
B: X3
A:
C:
A:
B:
H: X3
D: X2
I:
Comments