System Of A Down - Needles Chords & Tabs

 

Needles Chords & Tabs

System Of A Down Chords & Tabs

Version: 5 Type: Tab 0 ratings
1 star 2 stars 3 stars 4 stars 5 stars
comments

Needles Tab

   
Band:System Of A Down
Song:Needles
Album:Toxicity
Tuning:CGCFAD
Tabbed By:Glenn

""""=palm mute
p=pull-off
h=hammer-on
/=slide-up


Intro 
-4p3---4p3---4p3---4p3---4p3---4p3---4p3---4p3---
-----3-----3-----3-----3-----3-----3-----3-----3-
-------------------------------------------------
-------------------------------------------------
-------------------------------------------------
-------------------------------------------------

Bridge
---------------------------------
---------------------------------
---------------------------------
-5-6-5-6-5-6-5-6-5-6-5-6-5-6-5-6-
-5-6-5-6-5-6-5-6-5-6-5-6-5-6-5-6-
-5-6-5-6-5-6-5-6-5-6-5-6-5-6-5-6-
 "   "   "   "   "   "   "   "

-------------------------------------------------
-------------------------------------------------
-------------------------------------------------
-------------------------------------------------
-------------------------------------------------
-6p5p0-6p5p0-6p5p0-6p5p0-6p5p0-6p5p0-6p5p0-6p5p0-
[ Tab from: http://www.guitartabs.cc/tabs/s/system_of_a_down/needles_tab_ver_5.html ]
Verse
------------------------------------------------
------------------------------------------------
------------------------------------------------
-5--6--5--6--5--6--5--6--5--6--5--6--5--6--5--6-
-5--6--5--6--5--6--5--6--5--6--5--6--5--6--5--6-
-5--6--5--6--5--6--5--6--5--6--5--6--5--6--5--6-
 "  "  "  "  "  "  "  "  "  "  "  "  "  "  "  "

Chorus
-----------------------------|-----------------------------
-----------------------------|-----------------------------
-----------------------------|-----------------------------
-5-------1-------7/-7/-7/-7/-|-5--5h6-3--3h5-6--6h8-5--5-5-
-5-------1-------7/-7/-7/-7/-|-5--5h6-3--3h5-6--6h8-5--5-5-
-5--12/--1--12/--7/-7/-7/-7/-|-5--5h6-3--3h5-6--6h8-5--5-5-

Solo
-------------------------|-------------------------
---4p3---4p3-------------|---3p2---3p2-------------
---------------0-----0---|---------------0-----0---
-5-----5---------4-----4-|-4-----4---------4-----4-
-------------6-----6-----|-------------5-----5-----
-------------------------|-------------------------
Comments