System Of A Down - Mr Jack Chords & Tabs

 

Mr Jack Chords & Tabs

System Of A Down Chords & Tabs

Version: 3 Type: Tab 3 ratings
1 star 2 stars 3 stars 4 stars 5 stars
comments

Mr Jack Tab

   
A slash means a pulloff from the first number to the second number

F=first string
C=second string
G=third string
C=fourth string
A:
F|---10/9--9/7---7-----7-8--7-|----5-5---7-----7-7--7-|
C|-0----------------0---------|-0-----------0---------|
G|----------------------------|-----------------------|
C|----------------------------|-----------------------|

B:
F|---------------------|---------------------|
C|---------------------|---------------------|
G|---------------------|---------------------|
C|-0---7---3---8-7-8-7-|-0---7---3---8-7-8-8-|
[ Tab from: http://www.guitartabs.cc/tabs/s/system_of_a_down/mr_jack_tab_ver_3.html ]
C:
F|------------------------------------------------------------|(listen  
C|------------------------------------------------------------| toit for
G|------------------------------------------------------------| exact
C|-0-------------------0------------0------------0-----------0| timing)

D:
F|----------------------|
C|----------------------|
G|----------------------|
C|-0-0--7-7--3-3--8-7-8-|

E:
F|----------------------|
C|----------------------|
G|----------------------|
C|-0-0-0-0-0-0--000-000-|

F:
F|--------------------|
C|--------------------|
G|--------------------|
C|-0-0-0-7--7-3-3-3-8-|

G:
F|-----------------|
C|-----------------|
G|-----------------|
C|-0---7---3-3-3-8-|


order:

A: 8x
B: 4x with heavy distortion
B: 4x clean
B: 2x with heavy distortion
B: 4x clean
B: 4x with heavy distortion
C: 1x (during the guitar solo)
D: 8x
E: 8x
F: 3x
G: 5x
Comments