System Of A Down - Mr Jack Chords & Tabs

 

Mr Jack Chords & Tabs

System Of A Down Chords & Tabs

Version: 2 Type: Tab 0 ratings
1 star 2 stars 3 stars 4 stars 5 stars
comments

Mr Jack Tab

   
Artist: System of a Down
Song: Mr. Jack
Album: Steal this album!
Tuning: Drop C (C G C F A D)
Tabbed by: Kevin Grant
Email: Psycho_Shavo@hotmail.com


this should be pretty close to the actual thing. if you think its wrong,
email me the corrections. this is one my favorite songs off this album,
so ROCK ON!! SOAD is most kick ass band i know of.


Intro (no distortion)

D-------------------------------------------
A-------------------------------------------
F-------------------------------------------
C-------------------------------------------
G---8\7-7\5-5-5-6-5---3-3-5-5-5-------------
C-0-----------------0----------------------- repeat several times


Chorus (distortion)

D--------------------------------------------------
A--------------------------------------------------
F--------------------------------------------------
C--------------------------------------------------
G-0----5----2----3\2/3\2--0----5----2----3\2/3-----
C-0----5----2----3\2/3\2--0----5----2----3\2/3-----


Verse (distortion)

D---------------------------------------------------
A---------------------------------------------------
F---------------------------------------------------
C---------------------------------------------------
G---------------------------------------------------
C-0----5----2----2-3-2-3-2-0----5----2----2-3-2-3-0-
PM.    .    .    ...........    .    .    .........

after the second Chorus play this...
[ Tab from: http://www.guitartabs.cc/tabs/s/system_of_a_down/mr_jack_tab_ver_2.html ]
D----------------------------------------------------
A----------------------------------------------------
F---8-7-5-5-6-5---3-3-5-5-5--------------------------
C----------------------------------------------------
G----------------------------------------------------
C-0-------------0------------------------------------ repeat a few times
PM.........................


then play the chorus part really fast

D--------------------------------------------------
A--------------------------------------------------
F--------------------------------------------------
C--------------------------------------------------
G-0-0--5-5--2-2--3\2/3\2--0-0--5-5--2-2--3\2/3-----
C-0-0--5-5--2-2--3\2/3\2--0-0--5-5--2-2--3\2/3----- (heavy distortion)
						     repeat a few times then...


"put your hands up    get outta the car!"

D-------------------------------------------
A-------------------------------------------
F-------------------------------------------
C-------------------------------------------
G-0-0-0-2----2-2-2-2-5----------------------
C-0-0-0-2----2-2-2-2-5---------------------- repeat x3


"F**k you pig! F**k you pig! F**k you pig!"

D----------------------------------------
A----------------------------------------
F----------------------------------------
C----------------------------------------
G-0-----2-----0-----5--------------------
C-0-----2-----0-----5-------------------- repeat x6


"put your hands up    get outta the car!"

D-------------------------------------------
A-------------------------------------------
F-------------------------------------------
C-------------------------------------------
G-0-0-0-2----2-2-2-2-5----------------------
C-0-0-0-2----2-2-2-2-5----------------------


hope thats right, email me if you have corrections



Comments