System Of A Down - Mr Jack Chords & Tabs

 

Mr Jack Chords & Tabs

System Of A Down Chords & Tabs

Version: 1 Type: Tab 0 ratings
1 star 2 stars 3 stars 4 stars 5 stars
comments

Mr Jack Tab

   
-=Mr. Jack=-System of a down
============
tabs by Javier Rodríguez
(C-G-C-F-A-D)

A: BASS
A': BASS

B
1:-3^2-2-2-2---22-2--2-22-|-5-5-5---55-5--5-55-|-7-7-7---77-7--7-77-|-10-101010--1012-12-12-1010/
2:-----3-3-3---33-3--3-33-|-6-6-6---66-6--6-66-|-8-8-8---88-8--8-88-|-11-111111--1111-11-11-1111/
3:-----2-2-2---22-2--2-22-|-5-5-5---55-5--5-55-|-7-7-7---77-7--7-77-|-10-101010--1010-10-10-1010/
4:-----0-0-0---00-0--0-00-|-0-0-0---00-0--0-00-|-0-0-0---00-0--0-00-|--0--0-0-0---0-0--0--0--0-0/
5:------------------------|--------------------|--------------------|----------------------------
6:------------------------|--------------------|--------------------|----------------------------

1:-2-2-2---22-2--2-22-|-5-5-5---55-5--5-55-|-7-7-7---77-7--7-77-|-10-101010--10-12--|
2:-3-3-3---33-3--3-33-|-6-6-6---66-6--6-66-|-8-8-8---88-8--8-88-|-11-111111--11-11--|
3:-2-2-2---22-2--2-22-|-5-5-5---55-5--5-55-|-7-7-7---77-7--7-77-|-10-101010--10-10--|
4:-0-0-0---00-0--0-00-|-0-0-0---00-0--0-00-|-0-0-0---00-0--0-00-|--0--0-0-0---0--0--|
5:--------------------|--------------------|--------------------|-------------------|
6:--------------------|--------------------|--------------------|-------------------|


C
1:---------------------|---------------------|
2:---------------------|---------------------|
3:---------------------|---------------------|
4:-0---7---3---8-7-8-7-|-0---7---3---8-7-8-8-|
5:-0---7---3---8-7-8-7-|-0---7---3---8-7-8-8-|
6:-0---7---3---8-7-8-7-|-0---7---3---8-7-8-8-|


D
pm..................................................
1:---------------------------|-----------------------|
2:---------------------------|-----------------------|
3:---------------------------|-----------------------|
4:-0---0-7---7-3---3-8-7-8-7-|-0---7---7-3---3-8-7-8-|
5:-0---0-7---7-3---3-8-7-8-7-|-0---7---7-3---3-8-7-8-|
6:-0---0-7---7-3---3-8-7-8-7-|-0---7---7-3---3-8-7-8-|
pm.............................................
1:-----------------------|---------------------|
2:-----------------------|---------------------|
3:-----------------------|---------------------|
4:-0---7---3---3-8-7-8-7-|-0---7---3---3-8-7-8-|
5:-0---7---3---3-8-7-8-7-|-0---7---3---3-8-7-8-|
6:-0---7---3---3-8-7-8-7-|-0---7---3---3-8-7-8-|
[ Tab from: http://www.guitartabs.cc/tabs/s/system_of_a_down/mr_jack_tab.html ]
E
pm.........................................
1:---------------------|-------------------|
2:---------------------|-------------------|
3:---------------------|-------------------|
4:-0---7---3---8-7-8-7-|-0---7---3---8-7-8-|
5:-0---7---3---8-7-8-7-|-0---7---3---8-7-8-|
6:-0---7---3---8-7-8-7-|-0---7---3---8-7-8-|

F
pm................................
1:---------------------|---------------------|
2:---------------------|---------------------|
3:---------------------|---------------------|
4:-0---7---3---8-7-8-7-|-0---7---3---8-7-8-8-|
5:-0---7---3---8-7-8-7-|-0---7---3---8-7-8-8-|
6:-0---7---3---8-7-8-7-|-0---7---3---8-7-8-8-|


G
1:----13/12--12---10---10--11-10----8--8---10--10--10-|
2:----------------------------------------------------|
3:----10/9---9----7----7---8--7-----5--5---7---7---7--|
4:----------------------------------------------------|
5:----------------------------------------------------|
6:-0--------------------------------------------------|


H
1:----13/12--12---10---10--11-10----8--8---101010101010101010-|
2:------------------------------------------------------------|
3:----10/9---9----7----7---8--7-----5--5---7-7-7-7-7-7-7-7-7--|
4:------------------------------------------------------------|
5:------------------------------------------------------------|
6:-0----------------------------------------------------------|


I
7x:                      1x:
1:----------------------|-----------------|
2:----------------------|-----------------|
3:----------------------|-----------------|
4:-0-0--7-7--3-3--8-7-8-|-0-0--7-7--3---8-|
5:-0-0--7-7--3-3--8-7-8-|-0-0--7-7--3---8-|
6:-0-0--7-7--3-3--8-7-8-|-0-0--7-7--3---8-|


J
pm............
1:----------------------|
2:----------------------|
3:----------------------|
4:-0-0-0-0-0-0----------|
5:-0-0-0-0-0-0----------|
6:-0-0-0-0-0-0--000-000-|


K
   pm...      .....
1:---------------------|
2:---------------------|
3:---------------------|
4:-0-0-0-7--7-3-3-3-8--|
5:-0-0-0-7--7-3-3-3-8--|
6:-0-0-0-7--7-3-3-3-8--|


L
1:-----------------|
2:-----------------|
3:-----------------|
4:-0---7---3-3-3-8-|
5:-0---7---3-3-3-8-|
6:-0---7---3-3-3-8-|


ORDER:
=====

A 4x

A, A, A, A' (plus B 1x)

C 4x
D
E
F
C 2x
E 3x
F
C 4x
G 5x
H
I
J 8x
K 3x
L 4x
K
Comments