System Of A Down - Mr Jack Chords & Tabs

 

Mr Jack Chords & Tabs

System Of A Down Chords & Tabs

Version: 4 Type: Bass Tab 0 ratings
1 star 2 stars 3 stars 4 stars 5 stars
comments

Mr Jack Bass Tab

   
Band: System Of A Down
Song: Mr. Jack
Tuning: F,C,G,C

*= Let Ring

Intro (X8)
F|--10/9--9/7--7--7--7--8--7--5--5--7--7--7-7-|
C|-------0-------0--0-------0--0--0--0--0-----|
G|--------------------------------------------|
C|-0------------------------------------------|

F|--10/9--9/7--7--7--7--8--7--5--57*-|
C|-------0-------0--0-------0--0--0---|
G|------------------------------------|
C|-0----------------------------------|

Pre-Verse (X8)
F|---------------------------------------|
C|---------------------------------------|
G|---------------------------------------|
C|--0----0---7----3---3---8-7-8-7--------|

Verse (X8)
F|---------------------------------------|
C|---------------------------------------|
G|---------------------------------------|
C|--0----7----3----8--7------------------|

Chorus (X8)
F|---------------------------------------|
C|---------------------------------------|
G|---------------------------------------|
C|--0----7----3----8--7--8--7------------|

Verse (X8)
F|---------------------------------------|
C|---------------------------------------|
G|---------------------------------------|
C|--0----7----3----8--7------------------|

Chorus (X8)
F|---------------------------------------|
C|---------------------------------------|
G|---------------------------------------|
C|--0----7----3----8--7--8--7------------|
[ Tab from: http://www.guitartabs.cc/tabs/s/system_of_a_down/mr_jack_btab_ver_4.html ]
Interlude
F|---------------------------------------|
C|---------------------------------------|
G|---------------------------------------|
C|--0*-----------------------------------|

Rest For 4/4 Measures.

(X4)
F|---------------------------------------|
C|---------------------------------------|
G|---------------------------------------|
C|--0*----------------------------------|

Tempo Pick-Up (X8)
F|---------------------------------------|
C|---------------------------------------|
G|---------------------------------------|
C|--0---0--7---7--3--3---8-7-8-----------|

Bridge (X2)
F|------------------------------------------------------|
C|------------------------------------------------------| 
G|------------------------------------------------------|
C|--0-1-1-0-1-1--0000-0000--0-1-1-0-1-1-0-1-0-0-1-0-0---|

F|------------------------------------------------------|
C|------------------------------------------------------| 
G|------------------------------------------------------|
C|--0-1-1-0-1-1--0000-0000--0-1-1-0-1-1--0-0-0-0-0-7----|

(X3)
F|---------------------------------------|
C|---------------------------------------|
G|---------------------------------------|
C|--0--0-0-7---7-3-3-3-8-----------------|

Outro (X5)
F|---------------------------------------|
C|---------------------------------------|
G|---------------------------------------|
C|--0---7---3---8------------------------|
Comments