System Of A Down - Mind Chords & Tabs

 

Mind Chords & Tabs

System Of A Down Chords & Tabs

Version: 3 Type: Tab 0 ratings
1 star 2 stars 3 stars 4 stars 5 stars
comments

Mind Tab

   
Band:System Of A Down
Song:Mind
Tabber:Glenn
Tuning:CGCFAD

h=hammer-on
p=pull-off
^=bend
~~~=tremolo
""""=palm-mute

intro
--------|----|--------------------------------------------|----------|----------------|---------
---8-7^-|--8-|---7-8-10------7-8-10-8-7--------8-7^-------|---8---7^-|---8---7^-------|---8---7-
-5---5^-|5---|-7-----------7------------7-5----------7-5^-|-5---5-5^-|-5---5-5^--7--5-|-5---5---
--------|----|--------------------------------------------|----------|----------------|---------
--------|----|--------------------------------------------|----------|----------------|---------
--------|----|--------------------------------------------|----------|----------------|---------
                                                                                        " " " "

bridge
-------------------
-------------------
-------------------
-------------0-0-0-
-------------0-0-0-
-0-0-0-0-0-0-0-0-0-
 " " " " " "
[ Tab from: http://www.guitartabs.cc/tabs/s/system_of_a_down/mind_tab_ver_3.html ]
chorus
--------------------|------------------
--------------------|------------------
--------------------|------------------
-0--1-3--0--3-2-1-0-|-0--1-3--0--3-2-1-
-0--1-3--0--3-2-1-0-|-0--1-3--0--3-2-1-
-0--1-3--0--3-2-1-0-|-0--1-3--0--3-2-1-
            " " " "              " " "

verse
-------------|-----10-----
-8~~~--11~~~-|-12^----12^-
-------------|------------
-------------|------------
-------------|------------
-------------|------------

bridge
-----------------------------
-----------------------------
-----------------------------
-------------------------6-6-
-------------------------6-6-
-0-0-0-3-3-3-0-0-0-3-3-3-6-6-
 " " " " " " " " " " " "

bridge
-----------------------------|
-----------------------------|
-----------------------------|
-7---------7---------7p6-7p6-|-7--6-7--6-7--6-7--6-7-7-
-7---------7---------7p6-7p6-|-7--6-7--6-7--6-7--6-7-7-
-7-6-6-6-6-7-6-6-6-6-7p6-7p6-|-7--6-7--6-7--6-7--6-7-7-
                               "  " "  " "  " "  " " " 

verse
----------------|-------------------------|-------------------------
---------12--12-|-12----12----12----12----|-12p10h12p10h12p10h12p10-
-12--12---------|----14----14----14----14-|-------------------------
----------------|-------------------------|-------------------------
----------------|-------------------------|-------------------------
----------------|-------------------------|-------------------------
Comments