System Of A Down - Mind Chords & Tabs

 

Mind Chords & Tabs

System Of A Down Chords & Tabs

Version: 1 Type: Tab 0 ratings
1 star 2 stars 3 stars 4 stars 5 stars
comments

Mind Tab

   
Hit me with a message: Stripes385@aol.com
TUNING: down one full step and drop d (C-G-C-F-A-D)

     
INTRO:    

    D|------------|------|--------------------------------------------------|
    A|---8--7^-*--|---8--|---7-8-10-----7-8-10-8-7---------8-7^----------*--|
    F|-5----5^----|-5----|-7----------7------------7-5-------------7-5^-----|   
    C|------------|------|--------------------------------------------------|
    G|---------*--|------|-----------------------------------------------*--|
    C|------------|------|--------------------------------------------------|

    D|-------------|---------------------|---------------------------|
    A|---8---7^-*--|----8---7^--------*--|--8---7--------------------|
    F|-5---5-5^----|--5---5-5^--7--5-----|----5---5---repeat-till----|
    C|-------------|---------------------|------------heavy-part-----|
    G|----------*--|------------------*--|---------------------------|
    C|-------------|---------------------|---------------------------|  
			         pm.............. 	

FILL A:    

      "Go Away" 
    D|-----------|
    A|-----------|
    F|-----------|  
    C|-0-0-0-----|
    G|-0-0-0-----|
    C|-0-0-0-----|

CHORUS:
[ Tab from: http://www.guitartabs.cc/tabs/s/system_of_a_down/mind_tab.html ]
    D|---------------------------|
    A|---------------------------|
    F|---------------------------|  
    C|-0---1-3----0---3-2-1-0----|
    G|-0---1-3----0---3-2-1-0----|
    C|-0---1-3----0---3-2-1-0----|
                      pm....... 
     
1ST VERSE:

    D|--------------|-----------------|
    A|-----12^------|-------15--------|
    F|-12^----------|--16^-----16^----| 

BRIDGE 1:

    D|-------------------------|
    A|-------------------------|
    F|-------------------------|
    C|--0-0-0-0-0-0-0-0-6-6-6--|  palm mute in and out
    G|--0-0-0-0-0-0-0-0-6-6-6--| you should be able to tell
    C|--0-0-0-0-0-0-0-0-6-6-6--|

BRIDGE 2:

    D|------------------------------|
    A|------------------------------|  
    F|------------------------------|  
    C|-7-x-6-7-x-6-7-7-7-x-6-7-x-6--| 
    G|-7-x-6-7-x-6-7-7-7-x-6-7-x-6--|
    C|-7-x-6-7-x-6-7-7-7-x-6-7-x-6--|

2ND VERSE:

    D|----------------------|---------|-------------------------------|
    A|------------12---12---|-12------|--12p10h12p10-repeat-vey-fast--|
    F|-12---12--------------|-----14--|-------------------------------|  

then repeat chorus

BREAKDOWN:  repeat bridge 1&2 palm muted really fast
     
OUTRO:

    D|-------------------------------|
    A|-------------------------------|
    F|-------------------------------| 
    C|-------------------------------|  really quiet
    G|-----------12-12-11-11-10------|
    C|-0-----------------------------|

If I missed anything just Email me and ill get it to ya

Comments