System Of A Down - Mind Chords & Tabs

 

Mind Chords & Tabs

System Of A Down Chords & Tabs

Version: 1 Type: Bass Tab 0 ratings
1 star 2 stars 3 stars 4 stars 5 stars
comments

Mind Bass Tab

Mind
System Of A Down
(self titled album)
Tabbed by Brad Murray
rdgrnr@flash.net
Drop D tuning and one step down (low to high CGCF)

The other guy had bits and peices of it wright, but he was missing alout
of parts Here's the correct version as I play it. It's probably the way
that Shavo Plays it to. It's kinda' easier to play with your stereo
first to get timing down and everything. TRY IT AND HAVE FUN!
[ Tab from: http://www.guitartabs.cc/tabs/s/system_of_a_down/mind_btab.html ]
intro x30
4/---------------------------------------------------
3/---------------------------------------------------
2/---------------------------------------------------
1/0~~5h444h56666-------------------------------------
= Riff 1 x4
4/---------------------------------------------------
3/---------------------------------------------------
2/5-4-3-2-1------------------------------------------
1/------------0-0-0----------------------------------
= Riff 2 x2
4/---------------------------------------------------
3/---------------------------------------------------
2/---------------------------------------------------
1/0--1-3--0--2-3-2-1--0--1-3--0--3-2-1---------------
= Riff 3
4/---------------------------------------------------
3/---------------------------------------------------
2/---------------------------------------------------
1/0--1-3--0--2-3-2-1--0--1-3--0--3-2-1--0--1-3--0--2-
= continued
4/---------------------------------------------------
3/---------------------------------------------------
2/---------------------------------------------------
1/3-2-1--0--1-3--0-------3-2-1-----------------------
= Riff 4
4/---------------------------------------------------
3/---------------------------------------------------
2/---------------------------------------------------
1/0--1-3--0--2-3-2-1--0--1-3--0--3-2-1--0--1-3--0--2-
= continued
4/---------------------------------------------------
3/---------------------------------------------------
2/---------------------------------------------------
1/3-2-1-3h2-3h2-3h2-3h2-3h2--------------------------
Chorus 1
Riff 2x2

= Bridge 1 x4
4/---------------------------------------------------
3/---------------------------------------------------
2/7---7---7---7-7------------------------------------
1/-6-5-6-5-5-6---------------------------------------
= Bridge 2 x4
4/-3---3---3-3-3-------------------------------------
3/--3-2-3-2------------------------------------------
2/---------------------------------------------------
1/---------------------------------------------------
Chorus 2
Riff 1
Riff 2

= Riff 5
4/---------------------------------------------------
3/---------------------------------------------------
2/---------------------------------------------------
1/0-1-3--0-3-1--0-1-3--0-3-1--0-1-3--0-3-1--0-1-3--0~
= Riff 6
4/---------------------------------------------------
3/---------------------------------------------------
2/---------------------------------------------------
1/0-1-3--0-3-1--0-1-3--0-3-1--0-1-3--0-3-1--3h2-3h2-3
= continued
4/---------------------------------------------------
3/---------------------------------------------------
2/---------------------------------------------------
1/h2-3h2-3h2-3h2-------------------------------------
Chourus 3
Riff 2x2
Bridge 1x4
Bridge 2x4
(guitar plays bridge)
Bridge 2x8

= Outro x4
4/------------------8-8---5-5------------------------
3/------------------------------5~~~~~~~~~~~~~~~~~~~~
2/------------------------------0~~~~~~~~~~~~~~~~~~~~
1/0~~~~~~~~~~~~~~~~~~~~~~~~~~~~~~~~~~~~~~~~~~~~~~~~~~

Comments