System Of A Down - Metro Chords & Tabs

 

Metro Chords & Tabs

System Of A Down Chords & Tabs

Version: 7 Type: Tab 0 ratings
1 star 2 stars 3 stars 4 stars 5 stars
comments

Metro Tab

transcribed by: thomas hassler
artist: system of a down
song: "metro"
album: dracula 200 soundtrack
tunning: CGCFAD
*: palm mute
^: short note
<>: last time only

Intro:(14=fourteen's not 1 then 4)
|-14-14-14-1414-14-1414-14-|
|--------------------------|
|--------------------------|
|--------------------------|
|--------------------------|
|--------------------------|
        then you play
|-xxxxxxxx--14-14-14-1414-14-1414-14-|
|-xxxxxxxx---------------------------|
|-xxxxxxxx---------------------------|
|------------------------------------|(repeat the 14's)
|------------------------------------|
|------------------------------------|
Riff 1:
|-10--------------------------|
|---10--11--8--10--6--8--5--3-|
|-----------------------------|
|-----------------------------|
|-----------------------------|
|-----------------------------|

|-10------------------------------|
|---10--11-11--8--10--6--8--5--3--|
|---------------------------------|
|---------------------------------|
|---------------------------------|
|---------------------------------|

Chorus( bass drums)

Riff 2:(those are 10's and 12's)
|--------------------------------------------------------|
|--------------------------------------------------------|
|--------------------------------------------------------|
|-10-10-1010101012--1212--121212-8-8-8888-10-10-10101010-|
|-10-10-1010101012--1212--121212-8-8-8888-10-10-10101010-|
|-10-10-1010101012--1212--121212-8-8-8888-8--8--8-8-8-8--|
[ Tab from: http://www.guitartabs.cc/tabs/s/system_of_a_down/metro_tab_ver_7.html ]
|------------------------------------------------|
|------------------------------------------------|
|------------------------------------------------|
|-10-10-1010101012--1212--121212-8--8--8--8--8-8-|
|-10-10-1010101012--1212--121212-8--8--8--8--8-8-|
|-10-10-1010101012--1212--121212-8--8--8--8--8-8-|

Riff 3:
|------------------|
|------------------|
|------------------|
|------------------|
|---------3-3------|
|-00-7-2-3---5-8-7-|
  ** * * ** ** * *

Riff 4:
|-10-|
|-10-|
|----|(repeat alot)
|----|
|----|
|----|

then back to main chorus(i remember...)

Riff 5:
|--------------------|
|--------------------|
|--------------------|
|-8h0-8h0-8h0-8h0-88-|(repeat  4 times)
|-8h0-8h0-8h0-8h0-88-|
|-8h0-8h0-8h0-8h0-88-|

Riff 6:
|-10---------------10-----------------|
|----10-11-8-10-11----10-11-8-10-11---|
|-------------------------------------|
|-------------------------------------|
|-------------------------------------|
|-------------------------------------|

|-10----17-15-12-13---10------|
|----10--------------------10-|
|-----------------------------|
|-----------------------------|
|-----------------------------|
|-----------------------------|

|-10-----------------10----------------|
|-----10--11-8-10-11----10--11-8-10-11-|
|--------------------------------------|
|--------------------------------------|
|--------------------------------------|
|--------------------------------------|

|-10-----17-15-12-13--------------------------|
|-----10--------------15-14-13-12-15-14-13-12-|
|---------------------------------------------|
|---------------------------------------------|
|---------------------------------------------|
|---------------------------------------------|

main chorus again:

Riff 7:
|---------------------------|
|---------------------------|
|---------------------------|(repeat 4 tmes)
|-----------------------<7>-|
|-------------33-------7<7>-|
|-00-77-22-33----55-88-7-7--|
                         ^
thats it foks. hope youe enjoy(slip_knot_79hotmail.com)
Comments