System Of A Down - Metro Chords & Tabs

 

Metro Chords & Tabs

System Of A Down Chords & Tabs

Version: 2 Type: Tab 0 ratings
1 star 2 stars 3 stars 4 stars 5 stars
comments

Metro Tab

Song: The Metro
Artist: System Of A Down
Transcribed by: Sanchez84

I play this in Standard Drop D Tunings
This is the way I play it in my band it sounds great so enjoy.

Intro 

|--X--X--X--X--X--X---X-X-X-X-|
|--X--X--X--X--X--X---X-X-X-X-|
|--X--X--X--X--X--X---X-X-X-X-|
|--X--X--X--X--X--X---X-X-X-X-|
|--X--X--X--X--X--X---X-X-X-X-|
|--X--X--X--X--X--X---X-X-X-X-|

|----------------------------X-X-X-X-X-X--|
|-15-15-15-15-15-15-15-15-15-X-X-X-X-X-X--|
|-----------------------------------------|
|-----------------------------------------|
|-----------------------------------------|
|-----------------------------------------|

|-8------------------8-----------------------|
|---8-9-6-8-4-6-3-1----8-9-9-6-8-4-6-3-1/12--|
|--------------------------------------------|
|--------------------------------------------|
|--------------------------------------------|
|--------------------------------------------|

Chorus
|--8--------------------------------------|
|--8--------------------------------------|
|--------------------------------8-8-8-8--|
|----8-8-8-8-10-10-10-10-6-6-6-6-8-8-8-8--|
|----8-8-8-8-10-10-10-10-6-6-6-6-6-6-6-6--|
|----8-8-8-8-10-10-10-10-6-6-6-6----------|

|---------------------------------------------|
|---------------------------------------------|
|---------------------------------------------|
|--8-8-8-8-10-10-10-10---6---6---6---6---6-6--|
|--8-8-8-8-10-10-10-10---6---6---6---6---6-6--|
|--8-8-8-8-10-10-10-10---6---6---6---6---6-6--|

Post Chorus
|----------------------|--------|
|----------------------|--------|
|----------------------|--------|
|--X-X-X-X--7-X-5-8-7—-|-5/10---| on 4th time 
|--X-X-X-X--7-X-5-8-7—-|-5/10---|
|--X-X-X-X--7-X-5-8-7—-|-5/10---| listen to song for strumming
[ Tab from: http://www.guitartabs.cc/tabs/s/system_of_a_down/metro_tab_ver_2.html ]
Verse 2 
|--8--|
|--8--|
|-----| Repeat
|-----|
|-----|
|-----|

Repeat Chorus 2x
    
Bridge 
|-----------------------|
|-----------------------|
|--6---6---6---6---6-6--| X4
|--6---6---6---6---6-6--|
|--6---6---6---6---6-6--|

Solo
|-8------------8------------8-----15-13-10-11--|
|---8-9-6-8-9----8-9-6-8-9----8----------------|
|----------------------------------------------|
|----------------------------------------------|
|----------------------------------------------|
|----------------------------------------------|

|-8----8`---------------8`----------------8`-----15-13-10-11--|
|--8-----8`-9`-6`-8`-9`---8`-9`-6`-8`-9`----8`----------------|
|-------------------------------------------------------------|
|-------------------------------------------------------------|
|-------------------------------------------------------------|
|-------------------------------------------------------------|

|---------------------------|
|-13-12-11-10-13-12-11-10---|
|---------------------------|
|---------------------------|
|---------------------------|
|---------------------------|

Chorus Variation 
|-----------------------------------------|
|-----------------------------------------|
|------------------------------8-8-10-10--|
|--8-8-8-8-10-10-10-10-6-6-6-6-8-8-10-10--|
|--8-8-8-8-10-10-10-10-6-6-6-6-6-6-8--8---|
|--8-8-8-8-10-10-10-10-6-6-6-6------------|

|-----------------------------------|
|-----------------------------------|
|-----------------------------------|
|--8-8-8-8-10-10-10-10---7/8/10/11--| Listen to song 4 the last part
|--8-8-8-8-10-10-10-10---7/8/10/-9--|
|--8-8-8-8-10-10-10-10---5/6/-8/-9--|

Outro
|------------------------|
|------------------------|
|------------------------|
|--X-X-X-X--77-55-88-77—-| 
|--X-X-X-X--77-55-88-77—-|
|--X-X-X-X--77-55-88-77—-|listen to song for strumming
Comments