System Of A Down - Metro Chords & Tabs

 

Metro Chords & Tabs

System Of A Down Chords & Tabs

Version: 1 Type: Tab 0 ratings
1 star 2 stars 3 stars 4 stars 5 stars
comments

Metro Tab

   
This song is on the Dracula2000 sound track. It can be tunned CGCFAD,
but I play alot of songs that are tunned 1/2 step down so thats how I 
tunned it.

x-palm mute
*-harmonics
^-bend

Intro

Eb------------------------------------------------------------------
Bb------------------------------------------------------------------
Gb------------------------------------------------------------------
Db-xxx-xxx-xxx-xxxx-xx-xx-------------------------------------------
Ab-xxx-xxx-xxx-xxxx-xx-xx-------------------------------------------
Db-xxx-xxx-xxx-xxxx-xx-xx-5*----------------------------------------
                               Fill          Fill2  
Eb--------------------------  -------------  -------------------------
Bb-14-----------------------  -------------  -------------------------
Gb---13-14-11-13-9-11-8-6---  -xxxxxxxxxxx-  --6^6^6^6^6^-------------

Verse is just a cool bass riff

Chorus
[ Tab from: http://www.guitartabs.cc/tabs/s/system_of_a_down/metro_tab.html ]
Db-99999999999--11-11-11-11-11-11-11--777777777777777-9-9-9-9-9-9-9-9
Ab-99999999999--11-11-11-11-11-11-11--777777777777777-7-7-7-7-7-7-7-7
Db-99999999999- 11-11-11-11-11-11-11--777777777777777----------------

Then on the second part of the chorus play this

Db-7-7-7-7-7-77----
Ab-7-7-7-7-7-77----
Db-7-7-7-7-7-77----


Verse 2

Eb---------------
Bb--10--10--10---Repeat This
Gb---9---9---9---

Then back to the chorus but this time the chorus go right into the 
bridge, like this.

Db-7-7-7-7-77-7-7-7-7-7-77-
Ab-7-7-7-7-77-7-7-7-7-7-77-
Db-7-7-7-7-77-7-7-7-7-7-77-

Bridge
                       Fill 1
Eb------------------   -18----------------    -----------------------
Bb-14---------------   ---19-18-16-14-----    14-13-12-11-14-13-12-11
Gb---13-14-11-13-14-   -------------------    -----------------------

Then play the chorus but fill instead Db-7-7-7-7-77-

Db-14141414-16161616-1818181818181818---
Ab-12121212-14141414-1616161616161616---
Db--------------------------------------

Outro

Db-xxxxxxx-99-77-99-66-
Ab-xxxxxxx-99-77-99-66-
Db-xxxxxxx-99-77-99-66-


Thats pretty much it if you have comments or corrections 
e-mail me at crazy_freik@yahoo.com I was in a hurry when I tabbed this
so it might have some screw ups but I checked it, I pretty sure it 
does'nt
Comments