System Of A Down - Marmalade Chords & Tabs

 

Marmalade Chords & Tabs

System Of A Down Chords & Tabs

Version: 7 Type: Tab 0 ratings
1 star 2 stars 3 stars 4 stars 5 stars
comments

Marmalade Tab

|-------------------------------------------------------------------------|
|-------------------------------------------------------------------------|
|----5-------5-------5-------5-------4-------4-------4-------4------(x5)--|
|7-7---7-7-7---7-7-7---7-7-7---7-6-6---6-6-6---6-6-6---6-6-6---6----------|
|-------------------------------------------------------------------------|
|-------------------------------------------------------------------------|

|-------------------------------------------------------------------------|
|--------6-6-5-5---------6-6-5-5---------6-6-5-5---------6-6-5-5----------|
|----5-5-------------5-5-------------4-4-------------4-4------------(x4)--|
|7-7-------------7-7-------------6-6-------------6-6----------------------|
|-------------------------------------------------------------------------|
|-------------------------------------------------------------------------|

|-------------------------------------------------------------------------|
|-------------------------------------------------------------------------|
|-------------------------------------------------------------------(x2)--|
|----------------------------3-3-------------1-1--------------------------|
|0-0-3-3-1-1-----0-0-3-3-1-1-----0-0-3-3-1-1-----0-0-3-3-1-1--------------|
|------------2-2---------------------------------------------2-2----------|

|-5---5---5---5---5---5---5---5---5---5---5---5---5---5---5-5-5-----------|
|-5---5---5---5---5---5---5---5---5---5---5---5---5---5---5-5-5-----------|
|-------------------------------------------------------------------------|
|-------------------------------------------------------------------------|
|-------------------------------------------------------------------------|
|-------------------------------------------------------------------------|

|--------------------------------palm-mute--------------------------------|
|-------------------------------------------------------------------------|
|............------...------...------...........-----...-----...----(x2)--|
|-------------10-------10-------10---------------9-------9-------9--------|
|-------------10-------10-------10---------------9-------9-------9--------|
|7-7-10-7-7-7-10---7-7-10---7-7-10---6-6-9-7-7-7-9---6-6-9---6-6-9--------|

|-------------------------------------------------------------------------|
|--------6-6-5-5---------6-6-5-5---------6-6-5-5---------6-6-5-5----------|
|----5-5-------------5-5-------------4-4-------------4-4------------(x4)--|
|7-7-------------7-7-------------6-6-------------6-6----------------------|
|-------------------------------------------------------------------------|
|-------------------------------------------------------------------------|

|-5---5---5---5---5---5---5---5-------------------------------------------|
|-5---5---5---5---5---5---5---5-------------------------------------------|
|-------------------------------------------------------------------------|
|-------------------------------------------------------------------------|
|-------------------------------------------------------------------------|
|-------------------------------------------------------------------------|

|-------------------------------------------------------------------------|
|-------------------------------------------------------------------------|
|-------------------------------------------------------------------------|
|----------------------------3-3-------------1-1--------------------------|
|0-0-3-3-1-1-----0-0-3-3-1-1-----0-0-3-3-1-1-----0-0-3-3-1-1--------------|
|------------2-2---------------------------------------------2-2----------|

|--------------------------------palm-mute--------------------------------|
|-------------------------------------------------------------------------|
|............------...------...------...........-----...-----...----(x2)--|
|-------------10-------10-------10---------------9-------9-------9--------|
|-------------10-------10-------10---------------9-------9-------9--------|
|7-7-10-7-7-7-10---7-7-10---7-7-10---6-6-9-7-7-7-9---6-6-9---6-6-9--------|
[ Tab from: http://www.guitartabs.cc/tabs/s/system_of_a_down/marmalade_tab_ver_7.html ]
|-------------------------------------------------------------------------|
|--------6-6-5-5---------6-6-5-5---------6-6-5-5---------6-6-5-5----------|
|----5-5-------------5-5-------------4-4-------------4-4------------(x4)--|
|7-7-------------7-7-------------6-6-------------6-6----------------------|
|-------------------------------------------------------------------------|
|-------------------------------------------------------------------------|

|--------------------------------palm-mute--------------------------------|
|--5-6-5---5-6-5---5-6-5---5-6-5---5-6-5---5-6-5---5-6-5---5-6-5----------|
|-------------------------------------------------------------------------|
|7-------7-------7-------7-------6-------6-------6-------6----------------|
|-------------------------------------------------------------------------|
|-------------------------------------------------------------------------|

|-------------------------------------------------------------------------|
|--5-6-5---5-6-5---5-6-5---5-6-5---5-6-5---5-6-5---5-6-5---5-6-5----------|
|-------------------------------------------------------------------------|
|7-------7-------7-------7-------6-------6-------6-------6----------------|
|-------------------------------------------------------------------------|
|-------------------------------------------------------------------------|

|5-5-5-5-5-5-5-5-7-7-7-7-8-8-8-8-4-4-4-4-4-4-4-4-12-12-12-12-10-10-10-10--|
|5-5-5-5-5-5-5-5-7-7-7-7-8-8-8-8-4-4-4-4-4-4-4-4-12-12-12-12-10-10-10-10--|
|-------------------------------------------------------------------------|
|-------------------------------------------------------------------------|
|-------------------------------------------------------------------------|
|-------------------------------------------------------------------------|

|5-5-5-5-5-5-5-5-7-7-7-7-8-8-8-8-3-3-3-3-3-3-3-3-12-12-12-12-10-10-10-10--|
|5-5-5-5-5-5-5-5-7-7-7-7-8-8-8-8-3-3-3-3-3-3-3-3-12-12-12-12-10-10-10-10--|
|-------------------------------------------------------------------------|
|-------------------------------------------------------------------------|
|-------------------------------------------------------------------------|
|-------------------------------------------------------------------------|

|5-5-7-7-8-8-7-7-10-10-8-8-7-7-8-8-4-4-5-5-7-7-5-5-8-8-7-7-5-5-7-7--------|
|-------------------------------------------------------------------------|
|-------------------------------------------------------------------------|
|-------------------------------------------------------------------------|
|-------------------------------------------------------------------------|
|-------------------------------------------------------------------------|

|5-5-7-7-8-8-7-7-10-10-8-8-7-7-8-8-3-3-5-5-7-7-5-5-12-12-10-10-13-13-12---|
|-------------------------------------------------------------------------|
|-------------------------------------------------------------------------|
|-------------------------------------------------------------------------|
|-------------------------------------------------------------------------|
|-------------------------------------------------------------------------|

|--------------------------------palm-mute--------------------------------|
|-------------------------------------------------------------------------|
|............------...------...------...........-----...-----...----(x2)--|
|-------------10-------10-------10---------------9-------9-------9--------|
|-------------10-------10-------10---------------9-------9-------9--------|
|7-7-10-7-7-7-10---7-7-10---7-7-10---6-6-9-7-7-7-9---6-6-9---6-6-9--------|

|-------------------------------------------------------------------------|
|--------6-6-5-5---------6-6-5-5---------6-6-5-5---------6-6-5-5----------|
|----5-5-------------5-5-------------4-4-------------4-4------------(x4)--|
|7-7-------------7-7-------------6-6-------------6-6----------------------|
|-------------------------------------------------------------------------|
|-------------------------------------------------------------------------|

|--------------------------------palm-mute--------------------------------|
|--5-6-5---5-6-5---5-6-5---5-6-5---5-6-5---5-6-5---5-6-5---5-6-5----------|
|-------------------------------------------------------------------------|
|7-------7-------7-------7-------6-------6-------6-------6----------------|
|-------------------------------------------------------------------------|
|-------------------------------------------------------------------------|

Thanks for using this Tab. If there are any comments, questions etc. e-mail
me at: stdmsojd@web.de . System Of A Down is the best band ever!!!
-mAgGoT-
Comments