System Of A Down - Marmalade Chords & Tabs

 

Marmalade Chords & Tabs

System Of A Down Chords & Tabs

Version: 4 Type: Tab 0 ratings
1 star 2 stars 3 stars 4 stars 5 stars
comments

Marmalade Tab

   
d|--5-5-5-5-5-5-5--7-7-7-7--8-8-8-8--4-4-4-4--13-13--12-12-------------------|
a|--5-5-5-5-5-5-5--7-7-7-7--8-8-8-8--4-4-4-4--13-13--12-12-------------------|
f|---------------------------------------------------------------------------|
c|---------------------------------------------------------------------------|
g|---------------------------------------------------------------------------|
c|---------------------------------------------------------------------------|

d|--5-5-5-5-5-5-5--7-7-7-7--8-8-8-8--4-4-4-4--13-13--12-12-------------------|
a|--5-5-5-5-5-5-5--7-7-7-7--8-8-8-8--4-4-4-4--13-13--12-12-------------------|
f|---------------------------------------------------------------------------|
c|---------------------------------------------------------------------------|
g|---------------------------------------------------------------------------|
c|---------------------------------------------------------------------------|

d|--5-5--7-7--8-8--7-7--10-10--8-8--7-7--8-8---------------------------------|
a|---------------------------------------------------------------------------|
f|---------------------------------------------------------------------------|
c|---------------------------------------------------------------------------|
g|---------------------------------------------------------------------------|
c|---------------------------------------------------------------------------|
[ Tab from: http://www.guitartabs.cc/tabs/s/system_of_a_down/marmalade_tab_ver_4.html ]
d|--4-4--6-6--7-7--6-6--9-9--7-7--6-6--7-7-----------------------------------|
a|---------------------------------------------------------------------------|
f|---------------------------------------------------------------------------|
c|---------------------------------------------------------------------------|
g|---------------------------------------------------------------------------|
c|---------------------------------------------------------------------------|

d|--5-5--7-7--8-8--7-7--10-10--8-8--7-7--8-8---------------------------------|
a|---------------------------------------------------------------------------|
f|---------------------------------------------------------------------------|
c|---------------------------------------------------------------------------|
g|---------------------------------------------------------------------------|
c|---------------------------------------------------------------------------|

d|--4-4--6-6--7-7--6-6--9-9--7-7--13-13--11-11-------------------------------|
a|---------------------------------------------------------------------------|
f|---------------------------------------------------------------------------|
c|---------------------------------------------------------------------------|
g|---------------------------------------------------------------------------|
c|---------------------------------------------------------------------------|

Second time tabbing, so bare with me, im the best soad fan ever, just know that!


| /  slide up
| \  slide down
| h  hammer-on
| p  pull-off
| ~  vibrato
| +  harmonic
| x  Mute note
Comments