System Of A Down - Marmalade Chords & Tabs

 

Marmalade Chords & Tabs

System Of A Down Chords & Tabs

Version: 2 Type: Bass Tab 0 ratings
1 star 2 stars 3 stars 4 stars 5 stars
comments

Marmalade Bass Tab

   
Song: Marmalade
Album: Unspecified
Bassist: Shavo Odajian
Tabbed by: The best bassist in the world
Tuning: E A D G
email: davidrossseddon@hotmail.com

Bass comes in after 4 bars
Intro:
G----------------------------------| X2
D-55555555555555554444444444444444o|
A---------------------------------o|
E----------------------------------|

G----------------------------------|
D----------------------------------|
A----------------------------------|
E-33333333333333332222222222222222-|

Bridge/chorus riff:
G----------------------------------------| X4
D----------------------------------------|
A----------------------------------------|
E-3363-3363-3363-3363-2252-2252-2252-2252|

(If you cant travel this fast you could try just hitting each note once until you get the hang of it)
Verse:
G---------------------------------------------|
D--------------------------------------------o|
A----------5----------6----------4----------5o|
E-33-66-55---33-66-55---33-66-55---33-66-55---|

Pre-chorus
G--------------------------------------| X2
D-------------------------------------o|
A-------------------------------------o|
E-3333333333333333-2252-2252-2252-2252-|

Bridge/chorus riff X2

Verse X2
[ Tab from: http://www.guitartabs.cc/tabs/s/system_of_a_down/marmalade_btab_ver_2.html ]
Pre-chorus X2

Bridge/chorus riff X2


Pre-solo(if thats what you'd call it):
G----------------------------------------------------------|
D-------------------------------55-55-55-55-44-44-44-44----|
A----------------------------------------------------------|
E-3x--3x--3x--3x--2x--2x--2x--2x--3--3--3--3--2--2--2--2---|

Guitar solo:
G--------------------------------------------------|
D--------------------------------------------------|
A--------------------------------------------------|
E-101010101010101010101010101010109999999999999999-|

G---------------------------------------------------| X2
D--------------------------------------------------o| 
A--------------------------------------------------o|
E-101010101010101010101010101010108888888866668888--|

Last verse:
G----------------------------------| X2
D---------------------------------o|
A-------5-------6-------4-------5-o|
E-3-6-5---3-6-5---3-6-5---3-6-5----|

Pre-chorus X2

Chorus X2

Outro:
G------------------|
D------------------|
A------------------|
E-3x-3x-3x-3x-2x---|

It sounds 100% to my ears, but if you find any faults email me your corrections. S.A.O.D. RULE!

| /  slide up
| \  slide down
| h  hammer-on
| p  pull-off
| ~  vibrato
| +  harmonic
| x  Mute note
Comments