System Of A Down - Marmalade Chords & Tabs

 

Marmalade Chords & Tabs

System Of A Down Chords & Tabs

Version: 1 Type: Bass Tab 0 ratings
1 star 2 stars 3 stars 4 stars 5 stars
comments

Marmalade Bass Tab

"Marmalade"

by: System of a Down
album: soundtrack to "Dee Snider`s Strangeland"
tabbed by: bluejayleaf@hotmail.com (or watchnuMAttW@hotmail.com!)

Intro
                                               x2
F||---------------------||---------------------||
C||*--7-7-7-7-7-7-7-7--*||*--6-6-6-6-6-6-6-6--*||
G||*-------------------*||*-------------------*||
C||---------------------||---------------------||

F||-------------------||----------------------------------|
C||*-----------------*||----------------------------------|
G||*-----------------*||----------------------------------|
C||--7-7-7-7-7-7-7-7--||--6-6-6-6-6-6-6-6-6-6-6-6-6-6--6--|

riff I
F||---------------------|--------------------|-------------------|
C||*--------------------|--------------------|-------------------|
G||*--------------------|--------------------|-------------------|
C||--7-7-10-7--7-7-10-7-|-7-7-10-7--7-7-10-7-|-6-6-9-6--6-6-9-6--|

F|------------------|--------------------|--------------------|
C|------------------|--------------------|--------------------|
G|------------------|--------------------|--------------------|
C|-6-6-9-6--6-6-9-6-|-7-7-10-7--7-7-10-7-|-7-7-10-7--7-7-10-7-|

                               end riff I
F|------------------|---------------------||
C|------------------|--------------------*||
G|------------------|--------------------*||
C|-6-6-9-6--6-6-9-6-|-6-6-9-6--6-6-9-(6)--||
                                       *skip note in both reps of 1st
                                       chorus, and at end of 2nd, 3rd
[ Tab from: http://www.guitartabs.cc/tabs/s/system_of_a_down/marmalade_btab.html ]
F||---------------------|---------------------||
C||*------------------3-|--------1-----------*||
G||*-00-3-1----00-3-1---|-00-3-1----00-3-1---*||
C||---------2-----------|------------------2--||

riff I

F|---------------------|--------------------|
C|-------------------3-|--------1-----------|
G|--00-3-1----00-3-1---|-00-3-1----00-3-1---|
C|---------2-----------|------------------2-|

F|--------------------------|-------------------------|
C|-----------------------33-|----------11-------------|
G|--00-33-11----00-33-11----|-00-33-11----00-33-11----|
C|-----------22-------------|----------------------2--|

riff I

F|-------------|------------|--------------|-------------|
C|-------------|------------|--77-77-77-77-|-------------|
G|-------------|------------|--------------|-------------|
C|--7--7--7--7-|-6--6--6--6-|-7--7--7--7---|-66-66-66-66-|
                                                                 x2
F||------------||------------||------------||--------------------|
C||*----------*||*----------*||*----------*||--------------------|
G||*----------*||*----------*||*----------*||--------------------|
C||--77777777--||--66666666--||--77777777--||-55555555-3333-5555-|

F|---------------------|------------------|------------------|
C|-------------------3-|-------1----------|----------------3-|
G|--00-33-1----0-3-1---|-0-3-1----0-3-1---|-0-3-1----0-3-1---|
C|----------2----------|----------------2-|-------2----------|

F|-------------------|
C|--------1----------|
G|--0-3-1----0-3-1---|
C|-----------------2-|

riff I

F|--------------|-----|
C|--------------|-----|
G|--------------|-----|
C|--7--7--7--7--|--6--|

P.S: Does anybody know a SoaD song called "Inner Vision" (at least
      chorus goes like that)? Please tell me!
Comments