System Of A Down - Lost In Hollywood Chords & Tabs

 

Lost In Hollywood Chords & Tabs

System Of A Down Chords & Tabs

Version: 1 Type: Bass Tab 0 ratings
1 star 2 stars 3 stars 4 stars 5 stars
comments

Lost In Hollywood Bass Tab

   
Band- System Of A Down
Song- lost In hollywood

Verse  x2
Gb|---------------------------------------||
Db|----2-2-2-2-2-2-2---2-2-2-2-2-2-2-2----||
Ab|-0-0---0---0---0---0-0---0---0---0-----||
Db|---------------------------------------||

Gb|------------------------------------------------||
Db|--2-2-2-2-2-2-2-2-2-2-2-2-2-2-2-----------------||
Ab|-0-0---0---0---0---0---0---0---0----------------||
Db|------------------------------------------------||

Gb|-------------5-4--------------------------------||
Db|-----------------22-2-22-2-2-2-2----------------||
Ab|--3-3-------------------------------------------||
Db|------------------------------------------------||

  Then
Gb|--------------------------------||
Db|-222222-333333-999999-777777----||
Ab|--------------------------------||
Db|--------------------------------||

Gb|--------------------------------||
Db|-222222-333333-999999-777777----||
Ab|--------------------------------||
Db|--------------------------------||


Gb|-----------------------------------------||
Db|-222222-333333-121212121212-141414141414-||
Ab|-----------------------------------------||
Db|-----------------------------------------||

Than the Drums

   Verse x2
Gb|---------------------------------------||
Db|----2-2-2-2-2-2-2---2-2-2-2-2-2-2-2----||
Ab|-0-0---0---0---0---0-0---0---0---0-----||
Db|---------------------------------------||

Gb|------------------------------------------------||
Db|--2-2-2-2-2-2-2-2-2-2-2-2-2-2-2-----------------||
Ab|-0-0---0---0---0---0---0---0---0----------------||
Db|------------------------------------------------||

Gb|-------------5-4--------------------------------||
Db|-----------------22-2-22-2-2-2-2----------------||
Ab|--3-3-------------------------------------------||
Db|------------------------------------------------||
[ Tab from: http://www.guitartabs.cc/tabs/s/system_of_a_down/lost_in_hollywood_btab.html ]
   Chorus x5
Gb|----------------------------------------------------------------||
Db|----------------------------------------------------------------||
Ab|---3-3333-3-3---------------------------------------------------||
Db|---------------5-5555-5-5---7-7777--7-7--2-222-3-333------------||

   Bridge
Gb|-----------------------------------||
Db|-----------------------------------||
Ab|---0---2-----5---3---2-------------||
Db|-----------------------------------||

Gb|-------------7~--5~--7-5--4~-------||
Db|-----------------------------------||
Ab|-----------------------------------||
Db|-----------------------------------||

Gb|--5~----4~---4-5-7~----5~-----7~----5~---7--5--4~--||
Db|---------------------------------------------------||Repeat
Ab|---------------------------------------------------||
Db|---------------------------------------------------||

Gb|-----7~--5~--7-5--4~--||
Db|----------------------||
Ab|----------------------||
Db|----------------------||

   Chorus x6 
Gb|----------------------------------------------------------------||
Db|----------------------------------------------------------------||
Ab|---3-3333-3-3---------------------------------------------------||
Db|---------------5-5555-5-5---7-7777--7-7--2-222-3-333------------||

  Verse/Outro
Gb|---------------------------------------||
Db|--2-2-2-2-2-2-2-2---2-2-2-2-2-2-2-2----||
Ab|-0-0---0---0---0---0-0---0---0---0-----||
Db|---------------------------------------||

Gb|------------------------------------------------||
Db|--2-2-2-2-2-2-2-2-2-2-2-2-2-2-2-----------------||
Ab|-0-0---0---0---0---0---0---0---0----------------||
Db|------------------------------------------------||

Gb|------------------------------------------------||
Db|-----5-5---------22-2-22-2-2-2-2----------------||
Ab|--3-3-------------------------------0~----------||
Db|------------------------------------------------||
Comments