System Of A Down - Legend Of Zelda Chords & Tabs

 

Legend Of Zelda Chords & Tabs

System Of A Down Chords & Tabs

Version: 2 Type: Tab 2 ratings
1 star 2 stars 3 stars 4 stars 5 stars
comments

Legend Of Zelda Tab

Artist: System Of A Down
Song: The Legend Of Zelda
Tuning: CGCFAD 
Tabbed By: Adam Eugenio, altered by: Bizo


This is the flute part in the intro
D|--5-----5----3----5---5p4h5p4--|
A|-----5----------5--------------|
F|-------------------------------|
C|-------------------------------|
G|-------------------------------|
C|-------------------------------|

These are the intro Chords
D|-------8----8----8----|
A|--5---10---10---10----|
F|--6----9---10----9----|
C|--7-------------------|
G|----------------------|
C|----------------------|

These are the chords strummed under the vocals
D|-------8----8----8---------------8--(0)--(9)------|
A|--5---10---10---10---10---8--7--10------(10)------|
F|--6----9---10----9---10---9--8---9--(6)--(9)------|
C|--7------------------12--10--9------(7)-----------|
G|--------------------------------------------------|
C|--------------------------------------------------|
[ Tab from: http://www.guitartabs.cc/tabs/s/system_of_a_down/legend_of_zelda_tab_ver_2.html ]
D|--5--12--17--15--13--13h15p13s12---12-12-12-10-10-12-13--|
A|---------------------------------------------------------|
F|---------------------------------------------------------|
C|---------------------------------------------------------|
G|---------------------------------------------------------|
C|---------------------------------------------------------|

D|--13-12-10-8-8-10-12---12-10-8-7---7-7-7-7--7-7-12-------|
A|---------------------------------------------------------|
F|---------------------------------------------------------|
C|---------------------------------------------------------|
G|---------------------------------------------------------|
C|---------------------------------------------------------|

This is the flute break in the middle
D|--5-----5----3----5---5p4h5p4---------7----9--12--12--9--|
A|-----5----------5----------------9-10--------------------|
F|---------------------------------------------------------|
C|---------------------------------------------------------|
G|---------------------------------------------------------|
C|---------------------------------------------------------|

Adam Eugenio originally tabbed this and noticed he tabbed 
it in standard tuning, I did my best to transpose it in SOAD's
normal tuning(CGCFAD) if there are any problems, suggestions, or
mistakes, fell free to e-mail me: kornspaz999@yahoo.ca 
Comments