System Of A Down - Know Chords & Tabs

 

Know Chords & Tabs

System Of A Down Chords & Tabs

Version: 2 Type: Tab 2 ratings
1 star 2 stars 3 stars 4 stars 5 stars
comments

Know Tab

   
Artist: System Of A Down
Song Title: KNOW
Album: System Of A Down
track length: 2:59
Tabbed By: Corey Amador
Email: Rav3N_oF_D3atH@yahoo.com

Ok here we go, The Complete version of KNOW by System Of A Down
as performed on thier 1998 album System Of A Down. Favorite Band and
my favorite album from them.
p.s. -This is a very Repetative Song.

Tunning: Drop C (from low to high: C G C F A d)

intro
0:06
d:---------------------------------------------------------
A:---------------------------------------------------------
F:---------------------------------------------------------
C:---8/----0---8--8--0-0--8--8----0---8--88--00-0---8--8---
G:---8/----0---8--8--0-0--8--8----0---8--88--00-0---8--8---
C:---8/----0---8--8--0-0--8--8----0---8--88--00-0---8--8---

0:12
d:---------------------------------------------------------
A:---------------------------------------------------------
F:---------------------------------------------------------
C:--0---8--88---0-0---8--8---0---8-88--00-0---8--8---------
G:--0---8--88---0-0---8--8---0---8-88--00-0---8--8---------
C:--0---8--88---0-0---8--8---0---8-88--00-0---8--8---------

Rhy.FIG. 1a                                 pm. . . .
0:19                                 0:32
d:|------------------------------|---9-9--9-999-----------------|
A:|o----------------------------o|o----------------------------o|
F:|------------------------------|------------------------------|
C:|---0---0-8-88---0-0--4--4-----|------------------------------|
G:|o--0---0-8-88---0-0--4--4----o|o----------------------------o|
C:|---0---0-8-88---0-0--4--4-----|------------------------------|
play eight times then               play this 4 times

Rhy.Fig 1b
0:35
d:|------------------------|
A:|-----------------------o|
F:|------------------------|
C:|---0--0---0-0-2-3-------|
G:|---0--0---0-0-2-3------o|
C:|---0--0---0-0-2-3-------|
play eight times then

Verse 1
Rhy.Fig. 2a
0:42
d:|-----------------------|--------------------------
A:|o---------------------o|--------------------------
F:|-----------------------|--------------------------
C:|----0--0--0--0-2-3-----|---0--0---0--0-2--10/-----
G:|o---------------------o|---0--0---0--0-2--10/-----
C:|-----------------------|---0--0---0--0-2--10/-----
  pm and Play 14 times     then play 

Chorus 1
Rhy.Fig. 3a
0:55
d:|-------------------------------------------------
A:|-------------------------------------------------
F:|-------------------------------------------------
C:|---0--0-2-3--3-3--3--3----0--2-3----0-0--0--0-0--
G:|---0--0-2-3--3-3--3--3----0--2-3----0-0--0--0-0--
C:|---0--0-2-3--3-3--3--3----0--2-3----0-0--0--0-0--
      I                      KNOW    pm . . . . . . . .

d:|-------------------------------------------------
A:|-------------------------------------------------
F:|-------------------------------------------------
C:|---0--0-2-3--3-3--3--3----0--2-3----0-0--0--0-0--
G:|---0--0-2-3--3-3--3--3----0--2-3----0-0--0--0-0--
C:|---0--0-2-3--3-3--3--3----0--2-3----0-0--0--0-0--
                                    pm . . . . . . . .

d:|-------------------------------------------------
A:|-------------------------------------------------
F:|-------------------------------------------------
C:|---0--0-2-3--3-3--3--3----0--2-3-----------------
G:|---0--0-2-3--3-3--3--3----0--2-3-----------------
C:|---0--0-2-3--3-3--3--3----0--2-3-----------------


d:|-------------------------------------------------
A:|-------------------------------------------------
F:|-------------------------------------------------
C:|---0--0-2-3--3-3--3--3----0--2-3----0-0--0--0-0--
G:|---0--0-2-3--3-3--3--3----0--2-3----0-0--0--0-0--
C:|---0--0-2-3--3-3--3--3----0--2-3----0-0--0--0-0--
                                    pm . . . . . . . .

Rhy.Fig. 1b
1:09
d:|------------------------|
A:|-----------------------o|
F:|------------------------|
C:|---0--0---0-0-2-3-------|
G:|---0--0---0-0-2-3------o|
C:|---0--0---0-0-2-3-------|
   play 8 times then

                                    
Verse 2
Rhy.Fig. 2b
1:15
d:|-----------------------|
A:|o---------------------o|
F:|-----------------------|
C:|----0--0--0--0-2-3-----|
G:|o---------------------o|
C:|-----------------------|
  pm and Play 16 times     
[ Tab from: http://www.guitartabs.cc/tabs/s/system_of_a_down/know_tab_ver_2.html ]
Chorus 2
Rhy.Fig. 3a
1:29
d:|-------------------------------------------------
A:|-------------------------------------------------
F:|-------------------------------------------------
C:|---0--0-2-3--3-3--3--3----0--2-3----0-0--0--0-0--
G:|---0--0-2-3--3-3--3--3----0--2-3----0-0--0--0-0--
C:|---0--0-2-3--3-3--3--3----0--2-3----0-0--0--0-0--
      I                      KNOW    pm . . . . . . . .

d:|-------------------------------------------------
A:|-------------------------------------------------
F:|-------------------------------------------------
C:|---0--0-2-3--3-3--3--3----0--2-3----0-0--0--0-0--
G:|---0--0-2-3--3-3--3--3----0--2-3----0-0--0--0-0--
C:|---0--0-2-3--3-3--3--3----0--2-3----0-0--0--0-0--
                                    pm . . . . . . . .

d:|-------------------------------------------------
A:|-------------------------------------------------
F:|-------------------------------------------------
C:|---0--0-2-3--3-3--3--3----0--2-3-----------------
G:|---0--0-2-3--3-3--3--3----0--2-3-----------------
C:|---0--0-2-3--3-3--3--3----0--2-3-----------------


d:|-------------------------------------------------
A:|-------------------------------------------------
F:|-------------------------------------------------
C:|---0--0-2-3--3-3--3--3----0--2-3----0-0--0--0-0--
G:|---0--0-2-3--3-3--3--3----0--2-3----0-0--0--0-0--
C:|---0--0-2-3--3-3--3--3----0--2-3----0-0--0--0-0--
                                    pm . . . . . . . .


Rhy.Fig. 3b
1:42
d:----------------------------------------------
A:----------------------------------------------
F:----------------------------------------------
C:---0--0--0-0-0---0--0---0-0-0--0--0---0-0-0---
G:----------------------------------------------
C:----------------------------------------------
    pm . . . . . . . . . . . . . . . . . . . .

1:45
d:|-----------------------------------------------------------|
A:|o---------------------------------------------------------o|
F:|-----------------------------------------------------------|
C:|----0--0--0-0-0---0--0---0-0-0--0--0---0-0-0---0--0-0-0----|
G:|o---0--0--0-0-0---0--0---0-0-0--0--0---0-0-0---0--0-0-0---o|
C:|----0--0--0-0-0---0--0---0-0-0--0--0---0-0-0---0--0-0-0----|
play twice

1:53                          2:16  
d:|--------------------------|------------
A:|o------------------------o|------------
F:|-----------9---9----------|------------
C:|---7-------9---9----------|---7/-------
G:|o--5-------7---7---------o|---5/-------
C:|---0----------------------|------------
play four times then

d:|----------------------------------------------------------------
A:|o---------------------------------------------------------------
F:|----------------------------------------------------------------
C:|---7--7--7---7--7--7-7-7-7-7---7--7--7---7--7--7-7-7-7-7--------
G:|o--5--5--5---5--5--5-5-5-5-5---5--5--5---5--5--5-5-5-5-5--------
C:|----------------------------------------------------------------

d:----------------------------------------------------------------|
A:---------------------------------------------------------------o|
F:----------------------------------------------------------------|
C:---9--9--9---9--9--9-9-9-9-9---9--9--9---9--9--9-9-9-9-9--------|
G:---7--7--7---7--7--7-7-7-7-7---7--7--7---7--7--7-7-7-7-7-------o|
C:----------------------------------------------------------------|
   play 2 times pm then an aditional 2 times unmuted

Final Chorus
2:42
d:|-------------------------------------------------
A:|-------------------------------------------------
F:|-------------------------------------------------
C:|---0--0-2-3--3-3--3--3----0--2-3----0-0--0--0-0--
G:|---0--0-2-3--3-3--3--3----0--2-3----0-0--0--0-0--
C:|---0--0-2-3--3-3--3--3----0--2-3----0-0--0--0-0--
      I                      KNOW    pm . . . . . . . .

d:|-------------------------------------------------
A:|-------------------------------------------------
F:|-------------------------------------------------
C:|---0--0-2-3--3-3--3--3----0--2-3----0-0--0--0-0--
G:|---0--0-2-3--3-3--3--3----0--2-3----0-0--0--0-0--
C:|---0--0-2-3--3-3--3--3----0--2-3----0-0--0--0-0--
                                    pm . . . . . . . .

d:|-------------------------------------------------
A:|-------------------------------------------------
F:|-------------------------------------------------
C:|---0--0-2-3--3-3--3--3----0--2-3-----------------
G:|---0--0-2-3--3-3--3--3----0--2-3-----------------
C:|---0--0-2-3--3-3--3--3----0--2-3-----------------


d:|-------------------------------------------------
A:|-------------------------------------------------
F:|-------------------------------------------------
C:|---0--0-2-3--3-3--3--3----0--2-3----0-0--0--0-0--
G:|---0--0-2-3--3-3--3--3----0--2-3----0-0--0--0-0--
C:|---0--0-2-3--3-3--3--3----0--2-3----0-0--0--0-0--
                                    pm . . . . . . . .

end
questions, comments, corrections, fan mail, hatemail, or what ever
else, can be sent to Corey Amador or Rav3N_oF_D3atH@yahoo.com
More Soad Tabs Commin Soon!!!!
Comments