System Of A Down - Know Chords & Tabs

 

Know Chords & Tabs

System Of A Down Chords & Tabs

Version: 1 Type: Tab 0 ratings
1 star 2 stars 3 stars 4 stars 5 stars
comments

Know Tab

-------------------------------------------------------------------------
System of a Down
Song Name: Know
Tuning: Drop D
-------------------------------------------------------------------------


Intro
----|---------------------
----|---------------------
----|---------------------  Play 4x
----|--0--666--0--66------
----|--0--666--0--66------
-7\-|--0--666--0--66------

"Cursed Earth"
--------------------                ----**-****---- 4x
-------------------- Play 8x then          *=10th fret
--------------------
----6666-----33-----
----6666-----33-----
--0-6666--0--33-----

Before verse
-------------------
-------------------
-------------------
--0-0-3------------
--0-0-3------------
--0-0-3------------

Verse
----------------
----------------
----------------
---0--0-3-------
----------------
----------------
  Palm muted

Chorus
------------------------------------------
------------------------------------------
------------------------------------------
-0-2--33333333----0-2--3--xxxxx-----------
-0-2--33333333----0-2--3--xxxxx-----------
-0-2--33333333----0-2--3--xxxxx-----------
[ Tab from: http://www.guitartabs.cc/tabs/s/system_of_a_down/know_tab.html ]
After 2nd Chorus
-----------------------------------------
-----------------------------------------
-----------------------------------------
-0-0-000000000-00000---------------------
-0-0-000000000-00000---------------------
-0-0-000000000-00000---------------------

Then..
-----------------------------------------
-----------------------------------------
-----------------------------------------
-0---0----10---10------------------------
-0---0----8-----8------------------------
-0---0-----------------------------------

Then
-----------------------------------------------------
-----------------------------------------------------
-----------------------------------------------------
-----------------------------------------------------
-----------------------------------------------------
-0-0-0000000000---3-3-3-3333333333333----------------

Finally..
----------------------------------------------------
----------------------------------------------------
----------------------------------------------------
-0-0-00000000000--3-3-3333333333333-----------------
-0-0-00000000000--3-3-3333333333333-----------------
-0-0-00000000000--3-3-3333333333333-----------------

Then play chorus again and your done
Comments