System Of A Down - Johnny Chords & Tabs

 

Johnny Chords & Tabs

System Of A Down Chords & Tabs

Version: 2 Type: Tab 0 ratings
1 star 2 stars 3 stars 4 stars 5 stars
comments

Johnny Tab

   
Artist-System Of A Down
Song-Johnny
Tabbed By:Steven Rhodes

Ok, Im not completely sure where this song originated from(I believe it was a
secret track on the first CD) but anyways its a pretty cool song to play, especially the solo.

Tuning-Drop C (C-G-C-F-A-D)

Intro X2
D|12------------------------
A|11---8-10-11-14--13-12-11-
F|--------------------------
C|--------------------------  X4
G|--------------------------
C|-------------------------- 

Verse X2
D|12--12-12-13-13/17\13---12--12-12-13-13/17\13
A|11--11-11-12-12/16\12---11--11-11-12-12/16\12
F|---------------------------------------------
C|---------------------------------------------  X2
G|---------------------------------------------
C|---------------------------------------------
[ Tab from: http://www.guitartabs.cc/tabs/s/system_of_a_down/johnny_tab_ver_2.html ]
D|10--10-10-11-11/15\11---10--10-10-11-11/15\11
A|-9---9--9-10-10/14\10----9---9--9-10-10/14\10
F|---------------------------------------------
C|---------------------------------------------  X2
G|---------------------------------------------
C|---------------------------------------------

Chorus X2
D|---------------------------
A|---------------------------
F|---------------------------
C|0-0-0-2-3--3-3-5-5-5-6--6-7  X2
G|0-0-0-2-3--3-3-5-5-5-6--6-7
C|0-0-0-2-3--3-3-5-5-5-6--6-7

D|---------------------------
A|---------------------------
F|---------------------------
C|0-0-0-2-3--3-3-5-5-5-5--2-2  X2
G|0-0-0-2-3--3-3-5-5-5-5--2-2
C|0-0-0-2-3--3-3-5-5-5-5--2-2

Solo X2 (The fun part :)
D|-----------------------------------------
A|11-11h12-12^13-12-12/15\12-11-11h12-12^13
F|-----------------------------------------
C|-----------------------------------------
G|-----------------------------------------
C|-----------------------------------------

D|-----------------------------------------
A|9-8-8-8h9-9^10-8-8/12\8-8-8h9-9^10-8-9-11<-End Of Solo, Bend the 11 on A to 12
F|----------------------------------------- 
C|-----------------------------------------
G|-----------------------------------------
C|-----------------------------------------

If you have any questions or comments, feel free to E-Mail Me at
TheXBOXElite@yahoo.com.  Have Fun!
Comments