System Of A Down - Jet Pilot Chords & Tabs

 

Jet Pilot Chords & Tabs

System Of A Down Chords & Tabs

Version: 6 Type: Tab 0 ratings
1 star 2 stars 3 stars 4 stars 5 stars
comments

Jet Pilot Tab

   
#----------------------------------PLEASE NOTE--------------------------------#
#This file is the author's own work and represents their interpretation of the#
#song. You may only use this file for private study, scholarship, or research.#
#-----------------------------------------------------------------------------#
#-- File created with Instab - http://www.pconline.com/~smcarey/instab.html --#
#-----------------------------------------------------------------------------#

Author/Artist: System Of A Down
Title: Jet Pilot
Album: Toxicity
Transcribed by: JT
Email: chopper668@yahoo.com

Drop C tuning: C G C F A D

------------------------------------------------------------------------------
------------------------------------------------------------------------------
------------------------------------------------------------------------------
-0-0-0--/6--0-0-0--8--0-0-0--/6--0-0-0--8------0-0-0----0-0-0-----------------
-0-0-0--/6--0-0-0--6--0-0-0--/6--0-0-0--6------0-0-0----0-0-0-----------------
-0-0-0--/6--0-0-0-----0-0-0--/6--0-0-0---------0-0-0-/6-0-0-0-/6--------------
                                         (X4)                    (X3)         

------------------------------------------------------------------------------
------------------------------------------------------------------------------
------------------------------------------------------------------------------
------------------------------------------------------------------------------
-0-8-7-5-7-5h7p5-3----7-8-7-8-7--5--7-8-7-8-7--5------------------------------
-------------------8--7-8-7-8-7--5--7-8-7-8-7--5------------------------------
                      (palm muted..............) (repeat X4)                  
[ Tab from: http://www.guitartabs.cc/tabs/s/system_of_a_down/jet_pilot_tab_ver_6.html ]
------------------------------------------------------------------------------
------------------------------------------------------------------------------
------------------------------------------------------------------------------
------------------------------------------------------------------------------
-7-8-7-8-7-5-5-5-7-8-7-8-7-5-5-5-------------7-8-7-8-7-5-5-5-7----------------
-7-8-7-8-7-5-5-5-7-8-7-8-7-5-5-5-------------7-8-7-8-7-5-5-5-7----------------
                                 (repeat X3)                   (pause...)     

------------------------------------------------------------------------------
------------------------------------------------------------------------------
------------------------------------------------------------------------------
------------------------------------------------------------------------------
------------------------------------------------------------------------------
------------------------------------------------------------------------------
 Repeat Intro with chorus lyrics, then repeat verse riff again.               

------------------------------------------------------------------------------
------------------------------------------------------------------------------
------------------------------------------------------------------------------
----------------------------5-7-8-7-10-8-12-10-14-12-15-14-12----14-12--------
-0-8-7-5-7-5h7p5-3------0-8-----------------------------------15-------15-13--
-------------------8----------------------------------------------------------
                    (X4)                              (quickly muted.......)  

------------------------------------------------------------------------------
------------------------------------------------------------------------------
------------------------------------------------------------------------------
------------------------------------------------------------------------------
------------------------------------------------------------------------------
------------------------------------------------------------------------------
 Repeat Chorus and that's it. You can see little mistakes. Have Fun!
Comments