System Of A Down - Jet Pilot Chords & Tabs

 

Jet Pilot Chords & Tabs

System Of A Down Chords & Tabs

Version: 3 Type: Tab 0 ratings
1 star 2 stars 3 stars 4 stars 5 stars
comments

Jet Pilot Tab

   
Song: Jet Pilot
Artist: System of a Down
Album: Toxicity
Tuning: Drop D, down 1 step, CGCFAD

Rhy. Fig. 1, 0:00, 0:38 x8, 1:10 x8, 1:45 x8:
d|-----------------|
A|-----------------|
F|-----------------|x4
C|---------------8-|
G|-0-0-0-----0-0-6-|
C|-0-0-0-3-7-0-0---|

0:09:
d|-----------------------------------------------------------------|
A|-----------------------------------------------------------------|
F|-----------------------------------------------------------------|
C|-----------------------------------------------------------------|
G|-0-0-0-----0-0-----0-0-----0-0-----0-0-----0-0-----0-0-----0-0---|
C|-0-0-0-3-7-0-0-3-7-0-0-3-7-0-0-3-7-0-0-3-7-0-0-3-7-0-0-3-7-0-0-3-|

Riff A, 0:15, 0:47 w/ slight p.m.:
   D5
d|---------------------------------|
A|---------------------------------|
F|---------------------------------|
C|-----3---2---0---2---020-3---1---|
G|-0-------------------------------|
C|---------------------------------|

Rhy. Fig. 2, 0:18, 0:50:
d|-----------------|
A|-----------------|
F|-----------------|x8
C|-----------------|
G|-7-8-7-8-7---5---|
C|-7-8-7-8-7---5---|
pm . . . . .   .

0:27, 1:00:
d|-----------------|
A|-----------------|
F|-----------------|x6
C|-----------------|
G|-7-8-7-8-7-5-5-5-|
C|-7-8-7-8-7-5-5-5-|
pm . . . . . . . .

0:35, 1:08:
d|---|
A|---|
F|---|
C|---|
G|-7-|
C|-7-|
[ Tab from: http://www.guitartabs.cc/tabs/s/system_of_a_down/jet_pilot_tab_ver_3.html ]
Rhy. Fig. 3, 1:20, 1:54:
d|-----------------------------------------------------------------|
A|-----------------------------------------------------------------|
F|-----------------------------------------------------------------|x2
C|---------------------------------------------------------------8-|
G|-0-0-0-----0-0-----0-0-----0-0-----0-0-----0-0-----0-0-----0-0-6-|
C|-0-0-0-3-7-0-0-3-7-0-0-3-7-0-0-3-7-0-0-3-7-0-0-3-7-0-0-3-7-0-0---|

Interlude, with Riff A x4, 1:30:
d|------------------------------|
A|------------------------------|
F|------------------------------|x4
C|------------------------------|
G|-0----------------------------|
C|------------------------------|

1:40:
d|----------------------------------------------------------|
A|----------------------------------------------------------|
F|--------------2---3---2---5---3---7---5---8---7-----------|
C|------3---5-----------------------------------------------|
G|-0/10-----------------------------------------------------|
C|----------------------------------------------------------|
 |                                                          |
d|----------------------------------------------------------|
A|----------------------------------------------------------|
F|----------------------------------------------------------|
C|----------------------------------------------------------|
G|----------------------------------0-----------------------|
C|----------------------------------------------------------|

1:44:
d|-----------------|
A|-6-5-----5-------|
F|-----7-5---7-5---|
C|---------------6-|
G|-----------------|
C|-----------------|
 |pm . . . . . . . |
 |                 |
d|-----------------|
A|-6-5-----5-------|
F|-----7-5---7-5---|
C|---------------6-|
G|-----------------|
C|-----------------|
 pm. . . . . . . . 

That’s the whole song.
Comments