System Of A Down - Jet Pilot Chords & Tabs

 

Jet Pilot Chords & Tabs

System Of A Down Chords & Tabs

Version: 2 Type: Tab 1 rating
1 star 2 stars 3 stars 4 stars 5 stars
comments

Jet Pilot Tab

The other tab of this song is all wacked out and this is the real version.
I wasted my money on the book you can buy for $20.00 so i decided to
tab this song 100% correctly just for your playing pleasure enjoy


drop d tuning

       
D--------------------------------------------------------------------------------------R
A--------------------------------------------------------------------------------------E
F--------------------------------------------------------------------------------------P
C-------------------8----------------------8-------------------8-------------------8---E
G-0--0--0-----0--0--6----0--0--0-----0--0--6-0--0--0-----0--0--6-0--0--0-----0--0--6---A
C-0--0--0-3/7-0--0-------0--0--0-3/7-0--0----0--0--0-3/7-0--0----0--0--0-3/7-0--0------T



D--------------------------------------------------------------------------------------
A--------------------------------------------------------------------------------------
F--------------------------------------------------------------------------------------
C--------------------------------------------------------------------------------------
G-0--0--0-------0--0-------0--0-------0--0-------0--0-------0--0-------0--0-------0--0-
C-0--0--0--3/7--0--0--3/7--0--0--3/7--0--0--3/7--0--0--3/7--0--0--3/7--0--0--3/7--0--0-


D---------------------------------------------
A---------------------------------------------
F---------------------------------------------
C----------3--2--0--2--0/2/0------------------
G-----0--------------------------3---1--------
C-3/------------------------------------------

           
D--------------------------------------------------------------------------------
A--------------------------------------------------------------------------------
F--------------------------------------------------------------------------------
C--------------------------------------------------------------------------------
G-7--8--7--8--7--5----7--8--7--8--7--5----7--8--7--8--7--5----7--8--7--8--7--5---
C-7--8--7--8--7--5----7--8--7--8--7--5----7--8--7--8--7--5----7--8--7--8--7--5---


D---------------------------------------------------------------------------------
A---------------------------------------------------------------------------------
F---------------------------------------------------------------------------------
C---------------------------------------------------------------------------------
G-7--8--7--8--7--5--5--5--7---7--8--7--8--7--5--5--5--7---7--8--7--8--7--5--5--5--
C-7--8--7--8--7--5--5--5--7---7--8--7--8--7--5--5--5--7---7--8--7--8--7--5--5--5--


D------------------------------------------------------------------------------------
A------------------------------------------------------------------------------------
F------------------------------------------------------------------------------------
C------------------------------------------------------------------------------------
G-7--8--7--8--7--5--5--5--7---7--8--7--8--7--5--5--5--7---7--8--7--8--7--5--5--5--7--
C-7--8--7--8--7--5--5--5--7---7--8--7--8--7--5--5--5--7---7--8--7--8--7--5--5--5--7--


[ Tab from: http://www.guitartabs.cc/tabs/s/system_of_a_down/jet_pilot_tab_ver_2.html ]
D-------------------------------------------------------------------------------------R
A-------------------------------------------------------------------------------------E
F-------------------------------------------------------------------------------------P
C-------------------8----------------------8-------------------8-------------------8--E
G-0--0--0-----0--0--6----0--0--0-----0--0--6-0--0--0-----0--0--6-0--0--0-----0--0--6--A
C-0--0--0-3/7-0--0-------0--0--0-3/7-0--0----0--0--0-3/7-0--0----0--0--0-3/7-0--0-----T

         
D---------------------------------------------
A---------------------------------------------
F---------------------------------------------
C----------3--2--0--2--0/2/0------------------
G-----0--------------------------3---1--------
C-3/------------------------------------------

           
D--------------------------------------------------------------------------------
A--------------------------------------------------------------------------------
F--------------------------------------------------------------------------------
C--------------------------------------------------------------------------------
G-7--8--7--8--7--5----7--8--7--8--7--5----7--8--7--8--7--5----7--8--7--8--7--5---
C-7--8--7--8--7--5----7--8--7--8--7--5----7--8--7--8--7--5----7--8--7--8--7--5---


D---------------------------------------------------------------------------------
A---------------------------------------------------------------------------------
F---------------------------------------------------------------------------------
C---------------------------------------------------------------------------------
G-7--8--7--8--7--5--5--5--7---7--8--7--8--7--5--5--5--7---7--8--7--8--7--5--5--5--
C-7--8--7--8--7--5--5--5--7---7--8--7--8--7--5--5--5--7---7--8--7--8--7--5--5--5--


D------------------------------------------------------------------------------------
A------------------------------------------------------------------------------------
F------------------------------------------------------------------------------------
C------------------------------------------------------------------------------------
G-7--8--7--8--7--5--5--5--7---7--8--7--8--7--5--5--5--7---7--8--7--8--7--5--5--5--7--
C-7--8--7--8--7--5--5--5--7---7--8--7--8--7--5--5--5--7---7--8--7--8--7--5--5--5--7--



D------------------------------------------------------------------------------------------
A------------------------------------------------------------------------------------------
F------------------------------------------------------------------------------------------
C---------------------------------------------------------------------------------------8--
G-0--0--0-------0--0-------0--0-------0--0-------0--0-------0--0-------0--0-------0--0--6--
C-0--0--0--3/7--0--0--3/7--0--0--3/7--0--0--3/7--0--0--3/7--0--0--3/7--0--0--3/7--0--0-----





D----------------------------------------------------------------------------------------------
A---------------------------------------------6--5----------5---------------6--5---------------
F-----------------2--3--2--5--3--7--5--8--7----------7--5--------7--5---------------7--5-------
C---------3--5-----------------------------------------------------------6------------------6--
G-0/10-----------------------------------------------------------------------------------------


D----------------------------------------------------------------------------------------
A----------------------------------------------------------------------------------------
F----------------------------------------------------------------------------------------
C---------------------------------------------------------------------------------------8
G-0--0--0-------0--0-------0--0-------0--0-------0--0-------0--0-------0--0-------0--0--6
C-0--0--0--3/7--0--0--3/7--0--0--3/7--0--0--3/7--0--0--3/7--0--0--3/7--0--0--3/7--0--0---

                                           the end


      
Comments