System Of A Down - Jet Pilot Chords & Tabs

 

Jet Pilot Chords & Tabs

System Of A Down Chords & Tabs

Version: 1 Type: Tab 0 ratings
1 star 2 stars 3 stars 4 stars 5 stars
comments

Jet Pilot Tab

   
Artist: System Of A Down 
Album: Toxicity
Song: Jet Pilot                                             Song Map
Tabbed By Greg Hennessey (kelvar@home.com)                                         
                                                            Part 1 x3
Tuning: Drop C (CGCFAD)                                     Part 2
                                                            
Part 1 (* = Palm Muted)                                     Part 3A x8     
D|-----------------------------------------|                Part 3B X6
A|-9----9----9----9----9----9----9-----9-9-|                Part 3C
F|-7----7----7----7----7----7----7-----7-7-|
C|-0000-0000-0000-0000-0000-0000-0000-0000-|                Part 1 x2
G|-0000-0000-0000-0000-0000-0000-0000-0000-|                Part 2
C|-0000-0000-0000-0000-0000-0000-0000-0000-|
    ***  ***  ***  ***  ***  ***  *** * *                   Part 3A x8
                                                            Part 3B x6
Part 2                                                      Part 3C
D|-----------------------|
A|-----------------------|                                  Part 1 x4
F|-----------------------|                                  Part 2 x4
C|---3-2-1-0-1-0h1p0-----|                                  Part 4
G|-0-----------------3-1-|
C|-----------------------|                                  Part 1 x3
                                                             
Part 3A          Part 3B          Part 3C                
D|--------------|-----------------|---|
A|--------------|-----------------|---|
F|--------------|-----------------|---|
C|-7-8-7-8-7--5-|-7-8-7-8-7-5-5-5-|-7-|
G|-7-8-7-8-7--5-|-7-8-7-8-7-5-5-5-|-7-|
C|-7-8-7-8-7--5-|-7-8-7-8-7-5-5-5-|-7-|
      

Part 4
D|---------------------------------------------------|
A|---------------------------------------------------|
F|---------------------------------------------------|
C|---3-5-7-8-7-10-8-12-10-14-12-14-12-10-8-12-10-8-7-|
G|-0-------------------------------------------------|
C|---------------------------------------------------| 
                                


[ Tab from: http://www.guitartabs.cc/tabs/s/system_of_a_down/jet_pilot_tab.html ]
Comments