System Of A Down - Innervision Chords & Tabs

 

Innervision Chords & Tabs

System Of A Down Chords & Tabs

Version: 6 Type: Tab 0 ratings
1 star 2 stars 3 stars 4 stars 5 stars
comments

Innervision Tab

   
#----------------------------------PLEASE NOTE---------------------------------#
#This file is the author's own work and represents their interpretation of the #
#song. You may only use this file for private study, scholarship, or research. #
#------------------------------------------------------------------------------##

                                   INNERVISION
                         As recorded by System of a Down
                         (Released as a Single in 2000)

Words and Music by System of a Down
Arranged by System of a Down
Transcribed by John Harag

Gtr I (C G C F A D) - 'Distortion'
Gtr II (C G C F A D) - 'Distortion'
Gtr III (C G C F A D) - 'Clean'

 Intro
           C#5
 1/4      4/4
  Gtr I    Gtrs I, II
   Q       E. E S E. E S E S S  3x E. S E S S E S S S S S S
|------||-----------------------||--------------------------||
|------||o---------------------o||--------------------------||
|------||-----------------------||--------------------------||
|------||--1--1-1-1--1-1-1-1-1--||-1--1-1-1-1-1-1-1-1-1-1-1-||
|------||o-1--1-1-1--1-1-1-1-1-o||-1--1-1-1-1-1-1-1-1-1-1-1-||
|-11\--||--1--1-1-1--1-1-1-1-1--||-1--1-1-1-1-1-1-1-1-1-1-1-||


 Pre-Verse
  $
  N.C.
  Gtrs I, II
  PM--------------------------------------------------------------|
  S S S S S S S S S S S S S S S S   S S S S S S S S S S S S S S S S
|---------------------------------|---------------------------------||
|---------------------------------|---------------------------------||
|---------------------------------|---------------------------------||
|---------------------------------|---------------------------------||
|---------------------------------|---------------------------------||
|-0-0-0-5-5-5-3-3-3-1-1-1-3-3-1-1-|-0-0-0-5-5-5-3-3-3-1-1-1-3-3-1-1-||


   Verse
    N.C.
    PM--------------------------------------------------------------|
    S S S S S S S S S S S S S S S S   S S S S S S S S S S S S S S S S
||----------------------------------|----------------------------------|
||o---------------------------------|----------------------------------|
||----------------------------------|----------------------------------|
||----------------------------------|----------------------------------|
||o---------------------------------|----------------------------------|
||--0-0-0-5-5-5-3-3-3-1-1-1-3-3-1-1-|-0-0-0-5-5-5-3-3-3-1-1-1-3-3-1-1--|


  PM--------------------------------------------------------------|
  S S S S S S S S S S S S S S S S   S S S S S S S S S S S S S S S S
|---------------------------------|----------------------------------||
|---------------------------------|---------------------------------o||
|---------------------------------|----------------------------------||
|---------------------------------|----------------------------------||
|---------------------------------|---------------------------------o||
|-0-0-0-5-5-5-7-7-7-3-3-3-7-7-5-5-|-0-0-0-5-5-5-7-7-7-3-3-3-7-7-5-5--||


 Interlude
  Fm/C
  Gtr III
  E. E. E +H       E. E. E +H
|-6--------------|----------------||
|----8-----------|----8-----------||
|-------7-(7)----|-7-----7-(7)----||
|----------------|----------------||
|----------------|----------------||
|----------------|----------------||


   Chorus
    C5 F5 G5 Eb5G5F5  C5 F5 G5 Eb5G5F5
    Gtrs I, II
    E. E. E. E. E E   E. E. E. E. E E
||------------------|-----------------|
||o-----------------|-----------------|
||------------------|-----------------|
||--0--5--7--3--7-5-|-0--5--7--3--7-5-|
||o-0--5--7--3--7-5-|-0--5--7--3--7-5-|
||--0--5--7--3--7-5-|-0--5--7--3--7-5-|


                                        D.S.
  C#5
  PM--------------------------------------|
  E. E S E. E S E S S   E. E S E. E S E S S
|---------------------|-----------------------||
|---------------------|----------------------o||
|---------------------|-----------------------||
|-1--1-1-1--1-1-1-1-1-|-1--1-1-1--1-1-1-1-1---||
|-1--1-1-1--1-1-1-1-1-|-1--1-1-1--1-1-1-1-1--o||
|-1--1-1-1--1-1-1-1-1-|-1--1-1-1--1-1-1-1-1---||


   Bridge
    C5 F5 G5 Eb5G5F5  C5 F5 G5 Eb5G5F5
    E. E. E. E. E E   E. E. E. E. E E
||------------------|-----------------|
||o-----------------|-----------------|
||------------------|-----------------|
||--0--5--7--3--7-5-|-0--5--7--3--7-5-|
||o-0--5--7--3--7-5-|-0--5--7--3--7-5-|
||--0--5--7--3--7-5-|-0--5--7--3--7-5-|

[ Tab from: http://www.guitartabs.cc/tabs/s/system_of_a_down/innervision_tab_ver_6.html ]
  C#5
  PM--------------------------------------|
  E. E. E. E. E E   E E E E S S S S S S S S   3x
|-----------------|---------------------------||
|-----------------|--------------------------o||
|-----------------|---------------------------||
|-1--1--1--1--1-1-|-1-1-1-1-1-1-1-1-1-1-1-1---||
|-1--1--1--1--1-1-|-1-1-1-1-1-1-1-1-1-1-1-1--o||
|-1--1--1--1--1-1-|-1-1-1-1-1-1-1-1-1-1-1-1---||


                                       Interlude
  C5 F5 G5 Eb5G5F5  C5 F5 G5 Eb5G5F5    N.C.
  E. E. E. E. E E   E. E. E. E. E E     E S E S S S E S E S S S
|-----------------|-----------------||--6-6-6-6-6-6-5-5-5-5-5-5-|
|-----------------|-----------------||o-4-4-4-4-4-4-4-4-4-4-4-4-|
|-----------------|-----------------||--------------------------|
|-0--5--7--3--7-5-|-0--5--7--3--7-5-||--------------------------|
|-0--5--7--3--7-5-|-0--5--7--3--7-5-||o-------------------------|
|-0--5--7--3--7-5-|-0--5--7--3--7-5-||--------------------------|


                           1.,2.,3.
  N.C.
  E S E S S S E S E S S S   E S E S S S E S E S S S
|-6-6-6-6-6-6-5-5-5-5-5-5-|-6-6-6-6-6-6-5-5-5-5-5-5-|
|-4-4-4-4-4-4-4-4-4-4-4-4-|-3-3-3-3-3-3-3-3-3-3-3-3-|
|-------------------------|-------------------------|
|-------------------------|-------------------------|
|-------------------------|-------------------------|
|-------------------------|-------------------------|


  E S E S S S E S E S S S   4x
|-6-6-6-6-6-6-5-5-5-5-5-5---||
|-3-3-3-3-3-3-3-3-3-3-3-3--o||
|---------------------------||
|---------------------------||
|--------------------------o||
|---------------------------||


  4.
  N.C.
  W          +W           +W           +W
|-5--------|-(5)--------|-(5)--------|-(5)----||
|-3--------|-(3)--------|-(3)--------|-(3)----||
|----------|------------|------------|--------||
|----------|------------|------------|--------||
|----------|------------|------------|--------||
|----------|------------|------------|--------||


 Outro
  N.C.
  PM--------------------------------------|
  E S E S E S E S E E   E S E S E S E S E E
|---------------------|---------------------|
|---------------------|---------------------|
|---------------------|---------------------|
|---------------------|---------------------|
|---------------------|---------------------|
|-0-0-5-5-3-3-1-1-3-1-|-0-0-5-5-3-3-1-1-3-1-|


  N.C.
  PM--------------------------------------------------------------|
  S S S S S S S S S S S S S S S S   S S S S S S S S S S S S S S S S
|---------------------------------|---------------------------------*|
|---------------------------------|---------------------------------*|
|---------------------------------|---------------------------------*|
|---------------------------------|---------------------------------*|
|---------------------------------|---------------------------------*|
|-0-0-0-5-5-5-3-3-3-1-1-1-3-3-1-1-|-0-0-0-5-5-5-3-3-3-1-1-1-3-3-1-1-*|


Duration Legend
---------------
W - whole; H - half; Q - quarter; E - 8th; S - 16th; T - 32nd; X - 64th; a - acciaccatura
+ - note tied to previous; . - note dotted; .. - note double dotted
Uncapitalized letters represent notes that are staccato (1/2 duration)
Irregular groupings are notated above the duration line
Duration letters will always appear directly above the note/fret number it represents the
duration for.  Duration letters with no fret number below them represent rests.  Multi-
bar rests are notated in the form Wxn, where n is the number of bars to rest for.  Low
melody durations appear below the staff

Tablature Legend
----------------
 h   - hammer-on
 p   - pull-off
 b   - bend
 pb  - pre-bend
 r   - bend release (if no number after the r, then release immediately)
 /\  - slide into or out of (from/to "nowhere")
 s   - legato slide
 S   - shift slide
  - natural harmonic
[n]  - artificial harmonic
n(n) - tapped harmonic
 ~   - vibrato
 tr  - trill
 T   - tap
 TP  - trem. picking
 PM  - palm muting
\n/  - tremolo bar dip; n = amount to dip
 \n  - tremolo bar down
 n/  - tremolo bar up
/n\  - tremolo bar inverted dip
 =   - hold bend; also acts as connecting device for hammers/pulls
 <>  - volume swell (louder/softer)
 x   - on rhythm slash represents muted slash
 o   - on rhythm slash represents single note slash

Misc Legend
-----------
 |  - bar
||  - double bar
||o - repeat start
o|| - repeat end
*|  - double bar (ending)
 :  - bar (freetime)
 $  - Segno
 &  - Coda
Tempo markers -  = BPM(8/16=s8/s16), where s8 = swing 8ths, s16 = swing 16ths


***************************************************************************************
* Generated using Power Tab Editor by Brad Larsen - http://powertab.guitarnetwork.org *
***************************************************************************************
Comments