System Of A Down - Innervision Chords & Tabs

 

Innervision Chords & Tabs

System Of A Down Chords & Tabs

Version: 3 Type: Bass Tab 0 ratings
1 star 2 stars 3 stars 4 stars 5 stars
comments

Innervision Bass Tab

   
  Innervision:By me
  Intro: (Come in after the wind down from the guitar)
F|--------------------------------------------------
C|--------------------------------------------------
G|--------------------------------------------------
C|1--1-1-1-11-1--1-1-1-11-1--1-1-1-11-1--1-1-1-11-0-

  Verse (I have a home...)
F|---------------------------------------------------
C|---------------------------------------------------     X2
G|---------------------------------------------------
C|0--5-3-1-3\1-0--5-3-1-3\1-0--5-7-3-7-5-0-5-7-3-7-5-

  Pre-Chorus ( I need to seek my innervision)
F|------------------------------------
C|------------------------------------
G|------------------------------------
C|1--1--1--1--0-5-7-3-7-5-0-5-7-3-7-5-

 Chorus ( Innervision!)
F|--------------------
C|--------------------
G|--------------------
C|1--1-1-1-1--1-1-1-0-

  Verse 2 (My pupils dance)
F|--------------------------------------------------
C|--------------------------------------------------    X2
G|--------------------------------------------------
C|0--5-3-1-3\1-0--5-3-1-3\1-0--5-7-3-7-5-0-5-7-3-7-5-
[ Tab from: http://www.guitartabs.cc/tabs/s/system_of_a_down/innervision_btab_ver_3.html ]
  Pre-Chorus ( I need to seek my innervision)
F|------------------------------------
C|------------------------------------
G|------------------------------------
C|1--1--1--1--0-5-7-3-7-5-0-5-7-3-7-5-

  Chorus ( Innervision!)
F|--------------------
C|--------------------
G|--------------------
C|1--1-1-1-1--1-1-1-0-

  The thingy after the chorus (dunno the name) (It's never too late to...)
F|------------------------------------------
C|------------------------------------------
G|------------------------------------------
C|1-1-1-1-111111111-0-5-7-3-7-5-0-5-7-3-7-5-
  Bridge (Theres only on true path in life)
F|-------------------------------------
C|-------------------------------------
G|-------------------------------------
C|1----0----1----0----1----0----1----0-

  Outro (your sacred silence, losing all violence)
F|-----------------------------------------------------------------------------------
C|-----------------------------------------------------------------------------------
G|-----------------------------------------------------------------------------------
C|00-55-33-11-3-1-00-55-33-11-3-1-0000-5555-3333-1111-33-11-0000-5555-3333-1111-33-1-

There you go, have fun  -Rock on-
Comments