System Of A Down - Innervision Chords & Tabs

 

Innervision Chords & Tabs

System Of A Down Chords & Tabs

Version: 1 Type: Bass Tab 0 ratings
1 star 2 stars 3 stars 4 stars 5 stars
comments

Innervision Bass Tab

   
-=inervision=- System of a down
==============
tabs by Javier Rodríguez

A:
F|-----------------|
C|-----------------|
G|-----------------|
C|/1-1-1-1-1-1-1-1-|

B:
F|---------------------------------|
C|---------------------------------|
G|---------------------------------|
C|-0-0-0-5-5-5-3-3-3-1-1-1-3-3-1-1-|

C:
F|---------------------------------|
C|---------------------------------|
G|---------------------------------|
C|-0-0-0-5-5-5-7-7-7-3-3-3-7-7-5-5-|

D:
F|-----------------------|
C|-----------------------|
G|-----------------------|
C|-0---5---7---3---7---5-|

E:
F|-----------------|
C|-----------------|
G|-----------------|
C|-1-1-1-1-1-1-1-1-|
[ Tab from: http://www.guitartabs.cc/tabs/s/system_of_a_down/innervision_btab.html ]
F:
F|-------------------|-----------------------|----------------------|
C|-------------------|-----------------------|----------------------|
G|-------------------|-----------------------|----------------------|
C|-1----1----1----1--|--1--1--1--1--1--1--1--|--1-1-1-1-1-1-1-1-1-1-|

G:
F|--------|--------|
C|-8------|-7------|
G|--------|--------|
C|--------|--------|

H:
F|------------------------------|
C|------------------------------|
G|------------------------------|
C|-0-0--5-5--3-3--1-1--3-3--1-1-|

Order:
=====

A: X4
guitar
B: X2
C: X2
B: X2
C: X2
out bass
D: X2
E: X2
guitar
B: X2
C: X2
B: X2
C: X2
out bass
D: X2
E: X2
D: X2
E: X2
D: X2
F:
D: X2
F:
D: X2
F:
D: X2
out bass
G: X4
out all
H: X2
B: X2
Comments