System Of A Down - I E A I A I O Chords & Tabs

 

I E A I A I O Chords & Tabs

System Of A Down Chords & Tabs

Version: 1 Type: Bass Tab 0 ratings
1 star 2 stars 3 stars 4 stars 5 stars
comments

I E A I A I O Bass Tab

   
-=I-E-A-I-A-I-O=- system of A down
=================
tabs by Javier Rodríguez

A:
F|-------------------|
C|-------------------|
G|-------------------|
C|-1-0-0-0-0-0-0-0-0-|

B:
F|-------|
C|--5----|
G|-----3-|
C|-------|

C:
F|-------|
C|-9-----|
G|-----7-|
C|-------|

E:
F|------------|--------------|
C|------------|--------------|
G|------------|--------------|
C|-0--3-2--0--|-5--3-2--0--0-|
[ Tab from: http://www.guitartabs.cc/tabs/s/system_of_a_down/i_e_a_i_a_i_o_btab.html ]
F:
F|------------------------------|------------------------------|
C|------------------------------|------------------------------|
G|------------------------------|------------------------------|
C|-3--0-0-0-0--0-0-0-0--0-0-0-0-|-5--0-0-0-0--0-0-0-0--0-0-0-0-|

G:
F|-------------------|------------------|
C|-------------------|------------------|
G|-------------------|------------------|
C|-2--0-0-2-2---2-0--|-2--0-2-3-2---2-0-|

Order:
=====

drums/guitar intro
A: X16
B: X4
A: X4
B: X4
A: X4
C: X4
A: X4
B: X4
A: X4
E: X2
F: X2
B: X4
A: X4
B: X4
A: X4
C: X4
A: X4
B: X4
A: X4
E: X2
F: X2
E: X2
F: X2
G: X10 solo guitar
E: X2
F: X2
E: X2
F: X2
Comments