System Of A Down - Hypnotize Chords & Tabs

 

Hypnotize Chords & Tabs

System Of A Down Chords & Tabs

Version: 3 Type: Tab 0 ratings
1 star 2 stars 3 stars 4 stars 5 stars
comments

Hypnotize Tab

   
-------------------------------------------------------------------------------
			     Hypnotize - System of a down
-------------------------------------------------------------------------------
This song has not been realesed yet but you can go to the SOAD website
and hear it ther! or wait for the album to come out

Tabbed by:BladedFret
Email:Rikblade@hotmail.com

Tuning:C
                      Clean
e|---------------------------------------------------------------------------|
B|---------------------------------------------------------------------------|
G|-----5-------5--------7--------7--------7------7-------8------8-----7----- |
D|--------5-------5--------5-------5---------5------5------5------5-----5----|
A|---------------------------------------------------------------------------|
E|---------------------------------------------------------------------------|

e|-----------------------------------------|
B|-----------------------------------------|
G|-----7--------5-------5------4-----4-----|X2
D|--------5-------5-------5------5------5--|
A|-----------------------------------------|
E|-----------------------------------------|

e|---------------------------------------------------------------------------|
B|---8-----8--------7----7-------10-----10---------8-------8--------12-------|
G|-----0-----0--------0-----0-------0--------0--------0-------0---------0----|
D|---------------------------------------------------------------------------|
A|---------------------------------------------------------------------------|
E|---------------------------------------------------------------------------|
[ Tab from: http://www.guitartabs.cc/tabs/s/system_of_a_down/hypnotize_tab_ver_3.html ]
e|---------------------------------------------------------------------------|
B|-12------10------10-------13-------13--------12-------12-------------------|X 2
G|-----0-------0--------0--------0-------0---------0--------0----------------|
D|---------------------------------------------------------------------------|
A|---------------------------------------------------------------------------|
E|---------------------------------------------------------------------------|

e|---------------------------------------------------------------------------|
B|-15-------15-------13------13-----12-----12-----10----10-------13----------|
G|-----0--------0---------0------0------0-----0------0------0-------0--------|
D|---------------------------------------------------------------------------|
A|---------------------------------------------------------------------------|
E|---------------------------------------------------------------------------|

e|-----------------------------------------------------------------------------|
B|-13---12---12---10---10---8---8----11---11------10-----10-----8--------------|
G|----0----0----0----0----0---0---0-----0-----0-------0------0----0------------|
D|-----------------------------------------------------------------------------|
A|-----------------------------------------------------------------------------|
E|-----------------------------------------------------------------------------|

e|---------------------------------------------------------------------------|
B|--8-------7-------7--------------------------------------------------------|
G|-----0-------0-------0-----------------------------------------------------|
D|---------------------------------------------------------------------------|
A|---------------------------------------------------------------------------|
E|---------------------------------------------------------------------------|

e|---------------------------------------------------------------------------|
B|---------------------------------------------------------------------------|
G|-----------------------------8---------------------------------------------|
D|---5----5-----5------5--5----5---------------------------------------------|
A|---5----5-----5------5--5--------------------------------------------------|
E|---5----5-----5------5--5--------------------------------------------------|
PM  PM


| /  slide up
| \  slide down
| h  hammer-on
| p  pull-off
| ~  vibrato
| +  harmonic
| x  Mute note
===============================================================================
Comments