System Of A Down - Hypnotize Chords & Tabs

 

Hypnotize Chords & Tabs

System Of A Down Chords & Tabs

Version: 2 Type: Tab 0 ratings
1 star 2 stars 3 stars 4 stars 5 stars
comments

Hypnotize Tab

   
Now a jumpy version of this can be downloaded
fromhttp://rapidshare.de/files/5913604/hypnotize_www_soadfans.de.mp3.html
This was just played on radio today, so this is just the way I play it.

New SOAD Tuning (Db Ab Db Gb Bb Eb)

Intro
--4---4---3---3---6---6---4---4---8---8---6---6---9---9---8---8--|
-----------------------------------------------------------------|
----0---0---0---0---0---0---0---0---0---0---0---0---0---0---0----|
-----------------------------------------------------------------|
-----------------------------------------------------------------|
-----------------------------------------------------------------|

Verse
----------------------------------------|
----------------------------------------|
----------------------------------------|
-5--5--5-5-5---------5--5--5-5-5--------| x 2
-5--5--5-5-5--3-5-6--5--5--5-5-5--3-5-6-|
-5--5--5-5-5---------5--5--5-5-5--------|
[ Tab from: http://www.guitartabs.cc/tabs/s/system_of_a_down/hypnotize_tab_ver_2.html ]
Thingey
--11---11---9---9---8---8---6---6---9---9---8---8---6---6---4---4---|
--------------------------------------------------------------------|
-----0----0---0---0---0---0---0---0---0---0---0---0---0---0---0---0-|
--------------------------------------------------------------------|
--------------------------------------------------------------------|
--------------------------------------------------------------------|
    Im       Just    Sit   -   ting  In     My       Car     And

--7---7---6---6---4---4---3---3---4-|
------------------------------------|
----0---0---0---0---0---0---0---0---|
------------------------------------|
------------------------------------|
------------------------------------|
   Wait - Ing      For     My  Girl

Other Thingey (Play each 8 times)
--------------------------------|
--------------------------------|
----8--8--10--7-----------------|
-5--8--8--10--7-(I think)-7--0--|
-5--6--6--8---5-----------7--0--|
-5------------------------7--0--|

Dont Play This Eight Times
----------------------|
----------------------|
----------------------|
-5--5-0-3-5--5-0-3-5--|  x 4
-5--5-0-3-5--5-0-3-5--|
-5--5-0-3-5--5-0-3-5--|

Thats all I have so far, probably rubbish, but its ok for now. Any corrections, email me 
coolandcrazy@hotmail.com.
Thanks!
Shotgun Joe
Comments