System Of A Down - Hypnotize Chords & Tabs

 

Hypnotize Chords & Tabs

System Of A Down Chords & Tabs

Version: 10 Type: Tab

Hypnotize Tab

This is the Third one I've made:D

Band: System Of A Down
Guitar player: Daron Malakian

 |-----------------------------------------------------------------|
 |-----------------------------------------------------------------|
 |-4---4---6---6---6---6---6---6---7---7---6---6---4---4---3---3---|
 |---4---4---4---4---4---4---4---4---4---4---4---4---4---4---4---4-| 2x
 |-----------------------------------------------------------------|
 |-----------------------------------------------------------------|
[ Tab from: http://www.guitartabs.cc/tabs/s/system_of_a_down/hypnotize_tab_ver_10.html ]
 |-----------------4---4-----------6---6---4---4---7---7---6---6---|
 |-7---7---6---6-----------7---7-----------------------------------|
 |-----------------------------------------------------------------|
 |---4---4---4---4---4---4---4---4---4---4---4---4---4---4---4---4-| 2x
 |-----------------------------------------------------------------|
 |-----------------------------------------------------------------|

 |-9---9-------------------------------|
 |---------12---12---11---11---9---9---|
 |-------------------------------------|
 |-------------------------------------|
 |---9---9----9----9----9----9---9---9-|
 |-------------------------------------|

 |---------------------------------------|
 |-12---12---11---11---9---9-------------|
 |-----------------------------11---11---|
 |---------------------------------------|
 |----9----9----9----9---9---9----9----9-|
 |---------------------------------------|

 |---------------------------------------|
 |-10---10---9---9-----------------------|
 |-------------------11---11---10---10---|
 |---------------------------------------|
 |----9----9---9---9----9----9----9----9-|
 |---------------------------------------|

There it is this song and the rest of System Of A Down's songs on Hypnotize ROCKS!!!;D