System Of A Down - Hypnotize Chords & Tabs

 

Hypnotize Chords & Tabs

System Of A Down Chords & Tabs

Version: 2 Type: Bass Tab 0 ratings
1 star 2 stars 3 stars 4 stars 5 stars
comments

Hypnotize Bass Tab

System Of A Down - Hypnotize
Album: Hypnotize
Bassist: Shavo Odadjian
Tuning (Db,Ab,Db,Gb)
Tabbed By metallicaslayer22

r - let note ring

Intro
Gb-000000000000000000000000000000000000000000000000000000000000000-
Db-----------------------------------------------------------------|
Ab-----------------------------------------------------------------|
Db-----------------------------------------------------------------|

Gb------------------------------------------------------
Db-5555555555555555555555555555555555555555555555555555-
Ab------------------------------------------------------|
Db------------------------------------------------------|

Verse
Gb---------------|
Db---------------|
Ab---------------|
Db-5-5-5-5-0h1-1-| x's 8

Gb-000000000000000000000000000000000------------------|
Db----------------------------------55555555555555555-|
Ab----------------------------------------------------|
Db----------------------------------------------------|

Gb---------------|
Db---------------|
Ab---------------|
Db-5-5-5-5-0h1-1-| x's 8
[ Tab from: http://www.guitartabs.cc/tabs/s/system_of_a_down/hypnotize_btab_ver_2.html ]
Gb-000000000000000000000000000000000------------------|
Db----------------------------------55555555555555555-|
Ab----------------------------------------------------|
Db----------------------------------------------------|

Gb---------------|
Db---------------|
Ab---------------|
Db-5-5-5-5-0h1-1-| x's 2

Chorus
Gb-------------------------------------------------|
Db-------------------------------------------------|
Ab---------6-6-6-6-6-6-6-6-8-8-8-8-----------------|
Db-5-5-5-5-------------------------8-8-8-8-0-0-0-0-|

Bridge
Gb----------------------------------------|
Db----------------------------------------|
Ab----------------------------------------|
Db-5--00--3--5--00--3--5--00--3--5--00--3-| (Do this as many times as needed)

Chorus
Gb-------------------------------------------------|
Db-------------------------------------------------|
Ab---------6-6-6-6-6-6-6-6-8-8-8-8-----------------|
Db-5-5-5-5-------------------------8-8-8-8-0-0-0-0-|

Gb------------------------------------------|
Db------------------------------------------|
Ab------------------------------------------|
Db-5--00--3--5--00--3--5--00--3--5--00--3---|(Do this as many times as needed)

Gb------------------------------------------------|
Db------------------------------------------------|
Ab----------6-6-6-6--6-6-6-6--8-8-8-8-------------|
Db-5-5-5-5------------------------------8r-----0r-|
Comments