System Of A Down - Holy Mountain Chords & Tabs

 

Holy Mountain Chords & Tabs

System Of A Down Chords & Tabs

Version: 4 Type: Tab

Holy Mountain Tab

   
Intro

E-----------------------------------------------------------------------------|
B-----------------------------------------------------------------------------|
G-----------------------------------------------------------------------------|
D---0---0-----0---0-----0---0-------0---0---0---0-----0---0---0---0-----------|
A--0-0-0-0---0-0-0-0---0-0-0-0-----0-0-0-0-0-0-0-0---0-0-0-0-0-0-0-0----------|
E-0---0---7-8---8---/12--12---8-7-5---5---3---3---8-7---7---2---2---3-2-0 2XS-|

Riff1

E----------------------------------------------------------------|
B----------------------------------------------------------------|
G----------------------------------------------------------------|
D----------------------------------------------------------------|
A-0-0-0-0-0--8--7-7-7-7-7-7-7-/12-12-12-12-12--8-7-5-5-5-5-5-5-5-|
E-0-0-0-0-0--8--7-7-7-7-7-7-7-/12-12-12-12-12--8-7-5-5-5-5-5-5-5-|

Riff 1 Continued

E--------------------------------------------------------|
B--------------------------------------------------------|
G--------------------------------------------------------|
D--------------------------------------------------------|
A-3-3-3-3-3--/8--7-7-7-7-7-7--2-2-2-2-2--3-2-0-----------|
E-3-3-3-3-3--/8--7-7-7-7-7-7--2-2-2-2-2--3-2-0--12\\\\\\-|

Riff 2

E---------------------------------------------------------|
B---------------------------------------------------------|
G---------------------------------------------------------|
D---------------------------------------------------------|
A-0---8--7---7---12---8-7-5--5----3---8--7----2--3--2---0-|
E-0---8--7---7---12---8-7-5--5----3---8--7----2--3--2---0-|

Verse 1 Clean
[ Tab from: http://www.guitartabs.cc/tabs/s/system_of_a_down/holy_mountain_tab_ver_4.html ]
E---------------------------------------|
B---------------------------------------|
G---------------------------------------|
D---------------------------------------|
A-0---0---2---3---5----7-----8---10--12-|
E-0---0---2---3---5-----7----8---10--12-|    2 x's
     can you feel their haunting presence

Pre-Chorus

E---------------------------------|
B---------------------------------|
G---------------------------------|
D---------------------------------|
A-1-1----1-1----1-1---1-1-0-3-1-0-|
E-1-1----1-1----1-1---1-1-0-3-1-0-|

E-----------------------------------------------------------------|
B-----------------------------------------------------------------|
G-7-7-7-7-9-9-9-9-10-10-10-10-12-12-12-12-14-14-14-14-15-15-15-15-|
D-----------------------------------------------------------------|
A-5-5-5-5-7-7-7-7-8--8--8--8--10-10-10-10-12-12-12-12-13-13-13-13-|
E-----------------------------------------------------------------|

E-------------|
B-------------|
G-17-17-17-17-|
D-------------|
A-15-15-15-15-|
E-------------|

E-------------------------------|
B-------------------------------|
G-------------------------------|
D-------------------------------|
A-1-1---1-1---1-1---1-1-0-3-1-0-|
E-1-1---1-1---1-1---1-1-0-3-1-0-|

Chorus

E-----------------------|
B-----------------------|
G-----------------------|
D-----------------------|
A-8-8--8-8---7--5--7--0-|
E-8-8--8-8---7--5--7--0-|

Repeat Riff 2
Verse 1 (one time)
Pre-Chorus
Chorus

Interlude

E-------------------------------|
B-------------------------------|
G-------------------------------|
D-------------------------------|
A-0---1---3---5---0---1---3---5-|
E-------------------------------| Steadily get faster 6 x's. Then Fast Tremolo
                                Strumming 6 x's.

Riff 1
Pre-Chorus
Riff 1
Pre-Chorus
Chorus
Riff 1
Riff 2
Intro

/= Slide up
\= Slide down

I'm almost positive that this is correct. But if it is not 100% accurate, I'm sure this 
give you the idea.