System Of A Down - Holy Mountain Chords & Tabs

 

Holy Mountain Chords & Tabs

System Of A Down Chords & Tabs

Version: 2 Type: Bass Tab 0 ratings
1 star 2 stars 3 stars 4 stars 5 stars
comments

Holy Mountain Bass Tab

Tabbed By :MATTHEW
e-mail: BIG_FAT_MATTHEW2004@YAHOO.COM

Tuning:I HAD MY BASS IN REGULAR TUNING, OR JUST HAVE IT IN ANY TUNING BECAUSE IT SOUNDS 
EITHER WAY.

Intro x2       0:00-0:28

G|---------------------------------------------------------------------------|
D|---------------------------------------------------------------------------|
A|---------------------------------------------------------------------------|
E|-0-----0-----8---7-------7---------12-------12---8-5-------5---------------|


G|---------------------------------------------------------------------------|
D|---------------------------------------------------------------------------|
A|---------------------------------------------------------------------------|
E|-3-------3---8---7-------7---------2-------2---3-2---0-------0-------------|
[ Tab from: http://www.guitartabs.cc/tabs/s/system_of_a_down/holy_mountain_btab_ver_2.html ]
KINDA LIKE THE INTRO BUT MORE ROCK IN IT.   PLAY THIS 2 TIMES
 THE SECOND TIME PLAY IT A LITTLE SLOWER, 0:28-0:51
G|---------------------------------------------------------------------------|
D|---------------------------------------------------------------------------|
A|---------------------------------------------------------------------------|
E|--0-8-7----12-8-7-5----3-8-7----2-3-2-0------------------------------------|

     THEN PLAY THIS 1 TIME      0:28-1:09
G|---------------------------------------------------------------------------|
D|---------------------------------------------------------------------------|
A|---------------------------------------------------------------------------|
E|--0---0---0---2---3---5---7--8--10--12-------------------------------------|

SORRY BUT THAT IS ALL I GOT FOR THIS SONG BUT IM STILL TRYING TO FIND OUT THE REST. 
ME IF YOU KNOW SOME OF THE SONG IS . THANKS PLEASE GIVE ME A GOOD RATE
Comments