System Of A Down - Highway Song Chords & Tabs

 

Highway Song Chords & Tabs

System Of A Down Chords & Tabs

Version: 5 Type: Tab 0 ratings
1 star 2 stars 3 stars 4 stars 5 stars
comments

Highway Song Tab

highway song
ben misikin
steal this album
1-3-03
i screwed up on the verse on my last on i got it now.....this whole thing
sounds 100% right to me but judging by the rating on the last one i dont
think anyone else thinks its right.......
[ Tab from: http://www.guitartabs.cc/tabs/s/system_of_a_down/highway_song_tab_ver_5.html ]
pm- -  - -  - -  - -   --------- --------- ---------
---------------------|-------------------------------
---------------------|-------------------------------
------repeat---------|-------------------------------
---------------------|-------------------------------
--0-1--0-1--0-1--0-1-|-001100010-001100010-001100010-
--0-1--0-1--0-1--0-1-|-001100010-001100010-001100010-
pm--      --    --      --    --      --    --      --
-----------------------------------------------------------
-----------------------------------------------------------
-----------------------------------------------------------
----5*5*5*--5*5*--5*5*5*--5*5*--5*5*5*--5*5*--5*5*5*--5*5*-
--00------00----00------00----00------00----00------00-----
--00------00----00------00----00------00----00------00-----
verse
-5--4--0--3----------------------------4--------0--3-
-6--6--2--5--6-----8-----5---------4-----5------2--5-
-7--6--2--5----7-----7-----6---------5-----6----2--5-
-7--6--2--5------7-----7-----6---------------6--2--5-
-5--4--0--3---------------------5-4-------------0--3-
-5--4--0--3-------------------------------------0--3-
chourse
pm-- - ---- - -- - ---- - -- - ---- - -- - ---- -
-----------repeat---------------------------------|---------
--------------------------------------------------|---------
--77-8-7777-8-66-7-6666-7-22-3-2222-3-55-6-5555-6-|-5-5-5-5-
--77-8-7777-8-66-7-6666-7-22-3-2222-3-55-6-5555-6-|-5-5-5-5-
--55-6-5555-6-44-5-4444-5-00-1-0000-1-33-4-3333-4-|-3-3-3-3-
--------------------------------------------------|---------
solo
----------------------------------------------
----15-17----15----17-15----15-17----15----17-
-14-------14----14-------13-------13----13----
----------------------------------------------
----------------------------------------------
----------------------------------------------

-------------------------------------------------
----18-17----18----18-17----18-17----18----18-17-
-14-------14----14-------13-------13----14-------
-------------------------------------------------
-------------------------------------------------
-------------------------------------------------
bridge
pm- - - - - - - -   --------- --------- --------- - - - - - -
------------------|-------------------------------------------
------------------|-------------------------------------------
------------------|-------------------------------------------
------------------|-------------------------------------------
--0-1-0-1-0-1-0-1-|-001100010-001100010-001100010-1-0-1-0-1-0-
--0-1-0-1-0-1-0-1-|-001100010-001100010-001100010-1-0-1-0-1-0-

--------------
--------------
-2--13--9--12-
-2--13--9--12-
-0--11--7--10-
-0--11--7--10-

---------------------------------------------------------------------->
---------------------------------------------------------------------->
---------------------------------------------------------------------->
---------------------------------------------------------------------->
-001100010-111112121111111211-778877787-10101111010101110-11-10-11-10->
-001100010-111112121111111211-778877787-10101111010101110-11-10-11-10->

-------
-------
-------
-------
-11-10-
-11-10-
Comments