System Of A Down - Highway Song Chords & Tabs

 

Highway Song Chords & Tabs

System Of A Down Chords & Tabs

Version: 4 Type: Tab 0 ratings
1 star 2 stars 3 stars 4 stars 5 stars
comments

Highway Song Tab

System Of A Down
Steal This Album!
Highway Song
CGCFAD

Intro
|-----
|-----
|-----
|-----
|-0-0-
|-0-0-
p.m..

Riff 1
|-----------------
|-----------------
|-----------------
|-----000-----000-
|-0-0-000-0-0-000-
|-0-0-000-0-0-000-
p.m...............

Verse
|-5-------4--------------------
|-6-------5-------2-------5----
|-7-------6-------2-------5----
|-----------------2-------5----
|-----------------0-------3----
|------------------------------
[ Tab from: http://www.guitartabs.cc/tabs/s/system_of_a_down/highway_song_tab_ver_4.html ]
|----------------------------------------4----------------------------
|-6-----8-----6-----5-----------5-----------5-------------2------5----
|---7-----7-----7-----7-----------6------------6----------2------5----
|-----7-----7-----7-------------------------------6-------2------5----
|-------------------------5-4-----------------------------0------3----
|---------------------------------------------------------------------
-
Chorus
|------------------------------------------------------------------------
|------------------------------------------------------------------------
|------------------------------------------------------------------------
|-0-7-8-70-077-8-7----6-7-6---66-7-6----------------------5-6-5---55-6-5-
|-------------------4------4-4--------0-7-8-70-077-8-7--3------3-3-------
|------------------------------------------------------------------------
p.m......................................................................
(Repeat the first three segments once more and then instead of what's exactly
above "instead of what's exactly" do this:

|---------
|---------
|-5-5-5-5-
|-5-5-5-5-
|-3-3-3-3-
|---------

Interlude/Solo
|--------------------------------------------------
|-----15-17----15----17-15-----15-17----15----17-15
|-14--------14----14--------13-------13----13------
|--------------------------------------------------
|--------------------------------------------------
|--------------------------------------------------

|-------------------------------------------------
|----18-17----18----18-17-----18-17----18----18-17
|-15-------15----15--------14-------14----14------
|-------------------------------------------------
|-------------------------------------------------
|-------------------------------------------------

Interlude 2
|----------------
|----------------
|----------------
|----------------
|----------------
|-0---11---7---10
Comments