System Of A Down - Highway Song Chords & Tabs

 

Highway Song Chords & Tabs

System Of A Down Chords & Tabs

Version: 1 Type: Bass Tab 0 ratings
1 star 2 stars 3 stars 4 stars 5 stars
comments

Highway Song Bass Tab

   
-=Highway song=-system of a down
================
tabs by Javier Rodríguez

A:
F|-----------------------|
C|-----------------------|
G|-----------------------|
C|-0-0---0-0---0-0---0-0-|

B:
F|---------------------|
C|---------------------|
G|---------------------|
C|-0-0--000---0-0--000-|

C:
F|-----------------|-----------------|-----------------|-----------------|
C|-----------------|-----------------|-----------------|-----------------|
G|-5-5-5-5-5-5-5-5-|-4-4-4-4-4-4-4-4-|-0-0-0-0-0-0-0-0-|-3-3-3-3-3-3-3-3-|
C|-----------------|-----------------|-----------------|-----------------|

D:
F|--------------------------|--------------------------|
C|--------------------------|--------------------------|
G|-5--5--6--5-5--5-5-5-6--5-|-4--4--5--4-4--4-4-4-5--4-|
C|--------------------------|--------------------------|

F|--------------------------|--------------------------|
C|--------------------------|--------------------------|
G|-0--0--1--0-0--0-0-0-1--0-|-3--3--3--3-3--3-3-3-3--3-|
C|--------------------------|--------------------------|
[ Tab from: http://www.guitartabs.cc/tabs/s/system_of_a_down/highway_song_btab.html ]
F|--------------------------|--------------------------|
C|--------------------------|--------------------------|
G|-5--5--6--5-5--5-5-5-6--5-|-4--4--5--4-4--4-4-4-5--4-|
C|--------------------------|--------------------------|

F|--------------------------|---------------|
C|--------------------------|---------------|
G|-0--0--1--0-0--0-0-0-1--0-|-3---3---3---3-|
C|--------------------------|---------------|

E:
F|-----------------|
C|-----------------|
G|-----------------|
C|-0-0-0-0-0-0-0-0-|

F:
F|---------------------|
C|---------------------|
G|---------------------|
C|-0----11----7----10--|

G:
F|----------|----------|---------------|---------------|----------|----------|---------------|---------------|
C|----------|----------|---------------|---------------|----------|----------|---------------|---------------|
G|----------|----------|---------------|---------------|----------|----------|---------------|---------------|
C|-0-0--000-|-0-0--000-|-11-11--111111-|-11-11--111111-|-7-7--777-|-7-7--777-|-10-10--101010-|-10-10--101010-|

order:
=====

A: X2
B: X8
C: X2
D:
C: X2
D:
C: X2
E: X2
F: X2
G:
only guitar
C: X2
B: X4
Comments