System Of A Down - Goodbye Blue Sky Chords & Tabs

 

Goodbye Blue Sky Chords & Tabs

System Of A Down Chords & Tabs

Version: 2 Type: Tab 0 ratings
1 star 2 stars 3 stars 4 stars 5 stars
comments

Goodbye Blue Sky Tab

Band:System Of A Down
Song:Goodbye Blue Sky
Tabber:Glenn
Tuning:CGCFAD

-------------------------------|---------------------------------
-------------------------------|---------------------------------
-------0--------------0--------|-----0-------0-------0-------0---
---4------4---4---4------4-----|---4---4---4---4---4---4---4---4-
-5---5------5---5---5------5-0-|-2-------2-------2-------2-------
-------------------------------|---------------------------------
[ Tab from: http://www.guitartabs.cc/tabs/s/system_of_a_down/goodbye_blue_sky_tab_ver_2.html ]
---------------------------------|---------------------------------
---------------------------------|---------------------------------
-----0-------0-------0-------0---|-----0-------0-------0-------0---
---4---4---4---4---4---4---4-----|---4---4---4---4---4---4---4-----
-5-------5-------5-------5-----0-|-2-------2-------2-------2-----0-
---------------------------------|---------------------------------

---------------------------------|---------------------------------
---------------------------------|---------------------------------
---5---5-5-----4-4---------------|---5---5-5-----4-4-----4---5---6-
-----2-----2-------2---2---2---2-|-----2-----2-------2---------0---
-0-----------0-------0---0---0---|-0-----------0-------0---0-------
---------------------------------|---------------------------------
Comments