System Of A Down - Good Bye Blue Sky Chords & Tabs

 

Good Bye Blue Sky Chords & Tabs

System Of A Down Chords & Tabs

Version: 1 Type: Tab 1 rating
1 star 2 stars 3 stars 4 stars 5 stars
comments

Good Bye Blue Sky Tab

Song: Goodbye Blue sky
Band: System Of A Down

Intro
|--------------------------------------------------------------------------------------|
|--------------------------------------------------------------------------------------|
|-------------0------------------------0----------------------------------------------|
|------4---------4------4------4---------4------------------------------------------|
|--5------5---------5------5------5---------5---0----------------------------------|
|--------------------------------------------------------------------------------------|

|--------------------------------------------------------------------------------------|
|--------------------------------------------------------------------------------------|
|---------0-------------0--------------0-------------0-------------------------------|
|------4-----4------4------4------4------4------4-----4----------------------------|
|--2-------------2-------------2--------------2------------0-------------------------|
|--------------------------------------------------------------------------------------|

|--------------------------------------------------------------------------------------|
|--------------------------------------------------------------------------------------|
|-------------0------------------------0----------------------------------------------|
|------4---------4------4------4---------4------------------------------------------|
|--5------5---------5------5------5---------5---0----------------------------------|
|--------------------------------------------------------------------------------------|

|--------------------------------------------------------------------------------------|
|--------------------------------------------------------------------------------------|
|--------------------------------0-------------0--------------------------------------|
|------4------4--4------4--4------4------4------4----------------------------------|
|--2------2----------2-----------------2-------------0------------------------------|
|--------------------------------------------------------------------------------------|
[ Tab from: http://www.guitartabs.cc/tabs/s/system_of_a_down/good_bye_blue_sky_tab.html ]
|--------------------------------------------------------------------------------------|
|--------------------------------------------------------------------------------------|
|-------------0------------------------0----------------------------------------------|
|------4---------4------4------4---------4------------------------------------------|
|--5------5---------5------5------5---------5---0---------------------------------|
|-------------------------------------------------------------------------------------|

|-------------------------------------------------------------------------------------|
|-------------------------------------------------------------------------------------|
|----------0-------------0--------------0-------------0-----------------------------|
|------4------4------4------4------4------4------4------4-------------------------|
|--2--------------2-------------2--------------2-------------0---------------------|
|-------------------------------------------------------------------------------------|

|-------------------------------------------------------------------------------------|
|-------------------------------------------------------------------------------------|
|----------0-------------0--------------0-------------0-----------------------------|
|------4------4------4------4------4------4------4------4-------------------------|
|--5--------------5-------------5--------------5-------------0---------------------|
|-------------------------------------------------------------------------------------|

|-------------------------------------------------------------------------------------|
|-------------------------------------------------------------------------------------|
|----------0-------------0--------------0-------------0-----------------------------|
|------4------4------4------4------4------4------4------4-------------------------|
|--2--------------2-------------2--------------2------------0----------------------|
|-------------------------------------------------------------------------------------|

|-------------------------------------------------------------------------------------|
|-------------------------------------------------------------------------------------|
|-------------5--5-------------4--4-------------5--5-------------4--4-------------|
|------2----------------0-----------------2----------------0------------------------|
|--0------0---------2------2---------0------0---------2------2--------------------|
|-------------------------------------------------------------------------------------|

That’s all I know of this song 
Comments