System Of A Down - Fuck The System Chords & Tabs

 

Fuck The System Chords & Tabs

System Of A Down Chords & Tabs

Version: 6 Type: Tab 0 ratings
1 star 2 stars 3 stars 4 stars 5 stars
comments

Fuck The System Tab

Artist: System of a Down
Album: Steal This Album!
Song: F**K The System
By: Jeff Tiemann (Heater794@aol.com)
Tuning: Drop C, Like ALL System of a Down songs

Intro

D-------10p8-------|
A-----10-----------|
F---10-------------| X3 
C-10---------------|
G------------------|
C------------------| I think there some quick harmonics in this part,
listen to the song to figure it out


D------8h10-8h10-8--------|
A-------------------------|
F---10--------------------| X1
C-10----------------------|
G-------------------------|
C-------------------------|


D-----------------------------------|
A-----------------------------------|
F-----------------------------------| X4 (Last 2 Times Palm Mute)
C-0-2-3-2-0-2-3-2-0-2-3-2-0-2-3-2---|
G-0-2-3-2-0-2-3-2-0-2-3-2-0-2-3-2---|
C-0-2-3-2-0-2-3-2-0-2-3-2-0-2-3-2---|


D-------------------------------10-8-10-8---|
A---------------------10-8-10-8-------------|
F-----------10-8-10-8-----------------------| X1
C-10-8-10-8---------------------------------|
G-------------------------------------------|
C-------------------------------------------|



Verse

D------------------------------|
A------------------------------|
F------------------------------| X8
C------------------------------|
G-3-3-1--3-3-1--3-3-1--3-3-1---|
C------------------------------|


D-----18-----18-----18------18-----|
A----------------------------------|
F----------------------------------|
C----------------------------------|
G----------------------------------|
C----------------------------------|


D------------------------------|
A------------------------------|
F------------------------------| X4
C------------------------------|
G-3-1--3-1--3-1--3-1-----------|
C------------------------------|


D------------------------------|
A------------------------------|
F------------------------------| X4
C------------------------------|
G-3-3-1--3-3-1--3-3-1--3-3-1---|
C------------------------------|


Chorus

D-------------------------------------|
A-------------------------------------|
F-------------------------------------|
C-0-2-3-0--8--8--0-2-3-0--10-8-10-8---|
G-0-2-3-0--8--8--0-2-3-0--10-8-10-8---|
C-0-2-3-0--8--8--0-2-3-0--10-8-10-8---|

                                       

D-------------------------------------|
A-------------------------------------|
F-------------------------------------|
C-0-2-3-0--8--8--10-8-10-8-10-8-10----|
G-0-2-3-0--8--8--10-8-10-8-10-8-10----|
C-0-2-3-0--8--8--10-8-10-8-10-8-10----|


D-------------------------------------|
A-------------------------------------|
F-------------------------------------|
C-0-2-3-0--8--8--0-2-3-0--10-8-10-8---|
G-0-2-3-0--8--8--0-2-3-0--10-8-10-8---|
C-0-2-3-0--8--8--0-2-3-0--10-8-10-8---|


D-------------------------------------|
A-------------------------------------|
F-------------------------------------|
C-0-2-3-0--8--8-----------------------|
G-0-2-3-0--8--8-----------------------|
C-0-2-3-0--8--8-----------------------|

[ Tab from: http://www.guitartabs.cc/tabs/s/system_of_a_down/fuck_the_system_tab_ver_6.html ]
D-------------------------------------|
A-------------------------------------|
F-------------------------------------| X2
C-0-2-3-2-0-2-3-2-0-2-3-2-0-2-3-2-----|
G-0-2-3-2-0-2-3-2-0-2-3-2-0-2-3-2-----|
C-0-2-3-2-0-2-3-2-0-2-3-2-0-2-3-2-----|



Pre-Verse

D----------------------10-10-8---|
A---------------10-10-8----------|
F--------10-10-8-----------------| X2 
C-10-10-8------------------------|
G--------------------------------|
C--------------------------------|


Bridge

D----------------------10-10-8---|
A---------------10-10-8----------|
F--------10-10-8-----------------| X2 
C-10-10-8------------------------|
G--------------------------------|
C--------------------------------|


D---------------------------------------------------|
A---------------------------------------------------|
F----------------------------------------10-8-10-8--|
C-10-8-10-8--10-10-8-10-10-8--10-8-10-8-------------|
G-10-8-10-8-------------------10-8-10-8-------------|
C-10-8-10-8-------------------10-8-10-8-------------|

   

D----------------------------------10-8-10-8--------|
A------------10-8-10-8------------------------------|
F---------------------------------------------------|
C-10-8-10-8-------------10-8-10-8-------------------|
G-10-8-10-8-------------10-8-10-8-------------------|
C-10-8-10-8-------------10-8-10-8-------------------|

                                                     

D---------------------------------------------------------|
A---------------------------------------------------------|
F----------------------------------------10-10-8-10-10-8--|
C-10-8-10-8--10-10-8-10-10-8--10-8-10-8-------------------|
G-10-8-10-8-------------------10-8-10-8-------------------|
C-10-8-10-8-------------------10-8-10-8-------------------|


D---------------------------------------------------|
A---------------------------------------------------|
F----------------------------------10-10-8-10-10-8--| X2
C-10-8-10-8--10-8-10-8--10-8-10-8-------------------|
G-10-8-10-8-------------10-8-10-8-------------------|
C-10-8-10-8-------------10-8-10-8-------------------|


D----------------------------------------10-8-10-8--|
A------------10-10-8-10-10-8------------------------|
F---------------------------------------------------| X2
C-10-8-10-8-------------------10-8-10-8-------------|
G-10-8-10-8-------------------10-8-10-8-------------|
C-10-8-10-8-------------------10-8-10-8-------------|



Outro

D------------------------------|
A------------------------------|
F------------------------------| X4
C------------------------------|
G-3-3-1--3-3-1--3-3-1--3-3-1---|
C------------------------------|


D-----------------------------------|
A-----------------------------------|
F-----18------18------18------18----|
C-----------------------------------|
G-----------------------------------|
C-----------------------------------|


D-----------------------------------|
A-----------------------------------|
F-----------------------------------| X2
C-0-2-3-2-0-2-3-2-0-2-3-2-0-2-3-2---|
G-0-2-3-2-0-2-3-2-0-2-3-2-0-2-3-2---|
C-0-2-3-2-0-2-3-2-0-2-3-2-0-2-3-2---|

That's it, if you have any comments, corrections, or suggestions,
E-mail me at Heater794@aol.com
If you like this tab, check out the other ones by metalfreak794
Comments