System Of A Down - Fuck The System Chords & Tabs

 

Fuck The System Chords & Tabs

System Of A Down Chords & Tabs

Version: 2 Type: Tab 0 ratings
1 star 2 stars 3 stars 4 stars 5 stars
comments

Fuck The System Tab

   
Artist: System of a Down
Album: STEAL THIS ALBUM!
Song: Fuck The System
Tuning: Drop C (C.G.C.F.A.D)
Tabbed by: Adam Eugenio (LinkinParkX13@hotmail.com) (AIM: X SiMPLiSTiK)

Any mistakes? Email or IM me.

"THIS SONG IS NOT ABOUT GOVERNMENT"
System says so.

Intro
Sorry, I don't know the ver first part with the harmonics.
If anyone knows it feel free to email or IM me.

Heavy Part of Intro
D|---------------------
A|---------------------
F|---------------------  Repeat several times
C|---------------------
G|-0-2-3-2--0-2-3-2----
C|-0-2-3-2--0-2-3-2----


D|---------------------
A|---------------------
F|---------------------  Listen to song for rhythm
C|---------------------  
G|---------------------
C|-0-2-3-2--0-2-3-2----
PM * * * *  * * * *

[ Tab from: http://www.guitartabs.cc/tabs/s/system_of_a_down/fuck_the_system_tab_ver_2.html ]
Fill
D|-------------------------------10-8-10-8-
A|---------------------10-8-10-8-----------
F|-----------10-8-10-8---------------------
C|-10-8-10-8-------------------------------
G|-----------------------------------------
C|-----------------------------------------


Verse
D|------------------------------------------
A|------------------------------------------
F|------------------------------  About the 3rd time he plays it
C|------------------------------------------  without the palm muting.
G|------------------------------------------
C|-10-10-8--10-10-8--10-10-8----------------
PM ** ** *  ** ** *  ** ** *


Chorus
D|-------------------------------------------------------------------
A|-------------------------------------------------------------------
F|-------------------------------------------------------------------
C|-------------------------------------------------------------------
G|-------------------------------------------------------------------
C|-0-2-3-2-8-8---0-2-3-2-8-8-10-8---0-2-3-2-8-8--8-8-10-8--8-8-10-8--


Bridge
Same as Fill there's only a difference in the order.  Just listen and you'll get it.
Comments