System Of A Down - Fuck The System Chords & Tabs

 

Fuck The System Chords & Tabs

System Of A Down Chords & Tabs

Version: 1 Type: Bass Tab 0 ratings
1 star 2 stars 3 stars 4 stars 5 stars
comments

Fuck The System Bass Tab

   
-=F**k the system=-system of a down
=================
tabs by Javier Rodríguez

A:
F|---------------------------------|
C|---------------------------------|
G|---------------------------------|
C|-0-2-3-2-0-2-3-2-0-2-3-2-0-2-3-2-|

B:
F|----------------------------|
C|----------------------------|
G|-3-3-1--3-3-1--3-3-1--3-3-1-|
C|----------------------------|

C:
F|--------------------|
C|--------------------|
G|-3-1--3-1--3-1--3-1-|
C|--------------------|
[ Tab from: http://www.guitartabs.cc/tabs/s/system_of_a_down/fuck_the_system_btab.html ]
E:
F|---------------|--------------------|---------------|----------------------|
C|---------------|--------------------|---------------|----------------------|
G|---------------|--------------------|---------------|----------------------|
C|-0-2-3-0--8--8-|-0-2-3-0--10-8-10-8-|-0-2-3-0--8--8-|-10-8-10-8--10-8-10-8-|

F|---------------|--------------------|---------------|
C|---------------|--------------------|---------------|
G|---------------|--------------------|---------------|
C|-0-2-3-0--8--8-|-0-2-3-0--10-8-10-8-|-0-2-3-0--8--8-|

F:
F|-----------------|
C|-----------------|
G|-----------------|
C|-10-8-10-8-------|

Order:
=====

A: X4
C:
B: X8
C: X4
B: X4
E:
C:
B: X8
C: X4
B: X4
E:
only guitar
F: X14
B: X2
E:
Comments