System Of A Down - Forest Chords & Tabs

 

Forest Chords & Tabs

System Of A Down Chords & Tabs

Version: 5 Type: Tab 0 ratings
1 star 2 stars 3 stars 4 stars 5 stars
comments

Forest Tab

   
band: soad
song: forest
name : chris
email: rhcp_chris14@yahoo.com
 
i am tired of seeing this tab done wrong so i decided to do it myself. I got it
from the book so its 100% correct (i hope). i hope you enjoy it. 

email me for requests
 
drop d

    intro x2
6:------------------------------------------------------------
5:------------------------------------------------------------
4:------------------------------------------------------------
3:4-4-4-4-4-4-4-5-5-5-5-5-5-5-5-6-6-6-6-6-6-6-8-8-8-8-8-8-8-8-
2:5-5-5-5-5-5-5-6-6-6-6-6-6-6-6-7-7-7-7-7-7-7-8-8-8-8-8-8-8-8-
1:------------------------------------------------------------

  play this medium speed with distortion. 
 played once like this, then play again with palm mutes inbetween

6:----------------------------------------------------------------
5:----------------------------------------------------------------
4:----------------------------------------------------------------
3:0-0-6-4-0-0-6-4-0-0-6-4-0-0-6-4-0-0-4-6-0-0-4-6-0-0-4-6-0-0-4-6-
2:0-0-6-4-0-0-6-4-0-0-6-4-0-0-6-4-0-0-4-6-0-0-4-6-0-0-4-6-0-0-4-6-
1:0-0-6-4-0-0-6-4-0-0-6-4-0-0-6-4-0-0-4-6-0-0-4-6-0-0-4-6-0-0-4-6-

          played fast with distortion

6:------------------------------------------------
5:------------------------------------------------
4:----------------7-7-7-7-----------------8-8-8-8-
3:--------4-4-4-4-----------------5-5-5-5---------
2:5-5-5-5-----------------6-6-6-6-----------------
1:------------------------------------------------
 
      played once with palm mutes

6:--------------------------------
5:--------------------------------
4:--------------------------------
3:0-0-6-4-0-0-6-4-0-0-6-4-0-0-6-4-
2:0-0-6-4-0-0-6-4-0-0-6-4-0-0-6-4-
1:0-0-6-4-0-0-6-4-0-0-6-4-0-0-6-4-

         played fast

6:------------------------------------------------
5:------------------------------------------------
4:----------------7-7-7-7-----------------8-8-8-8-
3:--------4-4-4-4-----------------5-5-5-5---------
2:5-5-5-5-----------------6-6-6-6-----------------
1:------------------------------------------------
   
     played with palm mutes

6:--------------------------------
5:--------------------------------
4:--------------------------------
3:0-0-4-6-0-0-4-6-0-0-4-6-0-0-4-6-
2:0-0-4-6-0-0-4-6-0-0-4-6-0-0-4-6-
1:0-0-4-6-0-0-4-6-0-0-4-6-0-0-4-6-
[ Tab from: http://www.guitartabs.cc/tabs/s/system_of_a_down/forest_tab_ver_5.html ]
6:------------------------------------------------
5:------------------------------------------------
4:----------------7-7-7-7-----------------8-8-8-8-
3:--------4-4-4-4-----------------5-5-5-5---------
2:5-5-5-5-----------------6-6-6-6-----------------
1:------------------------------------------------

6:--------------------------------
5:--------------------------------
4:--------------------------------
3:0-0-6-4-0-0-6-4-0-0-6-4-0-0-6-4-
2:0-0-6-4-0-0-6-4-0-0-6-4-0-0-6-4-
1:0-0-6-4-0-0-6-4-0-0-6-4-0-0-6-4-

  played fast  (continued down below it)

6:-----------------------------------------------------------------------------
5:-----------------------------------------------------------------------------
4:--------------7-7-7-7--------------8-8-8-8--------------9-9-9-9--------------
3:-------4-4-4-4--------------5-5-5-5--------------6-6-6-6---------------7-7-7-
2:5-5-5-5--------------6-6-6-6-------------7-7-7-7----------------8-8-8-8------
1:-----------------------------------------------------------------------------

   after continued part play the rest at a comfortable medium pace

4:-10-10-10-10---7---7---8---8--9---9---10--10-
3:7-------------4-4-4-4-5-5-5--6-6-6-6-7---7--7
2:-------------5---5---6---6--7---7---8---8----

then play this while playing the second part a littles slower

6:---------------------------------------------------------------------
5:---------------------------------------------------------------------
4:---------------------------------------------------------------------
3:8-10-8-7-5-4--0-0--0-1-1--1-5-5--5-8-10-8-7-5-4--0-0--0-1-1--1-5-5--5
2:8-10-8-7-5-4--0-0--0-1-1--1-5-5--5-8-10-8-7-5-4--0-0--0-1-1--1-5-5--5
1:8-10-8-7-5-4--0-0--0-1-1--1-5-5--5-8-10-8-7-5-4--0-0--0-1-1--1-5-5--5

continued

2:8-10-8-7-5-4-
1:8-10-8-7-5-4-

play that then repeat part one with out intro and then play

6:----------------------------------------------------------------
5:----------------------------------------------------------------
4:----------------------------------------------------------------
3:0-0-6-4-0-0-6-4-0-0-6-4-0-0-6-4-0-0-4-6-0-0-4-6-0-0-4-6-0-0-4-6-
2:0-0-6-4-0-0-6-4-0-0-6-4-0-0-6-4-0-0-4-6-0-0-4-6-0-0-4-6-0-0-4-6-
1:0-0-6-4-0-0-6-4-0-0-6-4-0-0-6-4-0-0-4-6-0-0-4-6-0-0-4-6-0-0-4-6-

     play this then after the second part play the  0-0-4-6 part   

6:---------------------------------------------------------------------
5:---------------------------------------------------------------------
4:---------------------------------------------------------------------
3:8-8-8-8-7-5-8-8-8-8-7-5-8-8-8-8-7-5--0-0-6-4-0-0-6-4-0-0-6-4-0-0-6-4-
2:8-8-8-8-7-5-8-8-8-8-7-5-8-8-8-8-7-5--0-0-6-4-0-0-6-4-0-0-6-4-0-0-6-4-
1:8-8-8-8-7-5-8-8-8-8-7-5-8-8-8-8-7-5--0-0-6-4-0-0-6-4-0-0-6-4-0-0-6-4-


play that then do 8-8-8-8-7-5-11-11-11-11-8-6 like that 3 times higher each time


then do then 8-10-8-7-5-4-0 part and its over
Comments