System Of A Down - Deer Dance Chords & Tabs

 

Deer Dance Chords & Tabs

System Of A Down Chords & Tabs

Version: 2 Type: Tab 0 ratings
1 star 2 stars 3 stars 4 stars 5 stars
comments

Deer Dance Tab

so many tabs missing, so little time, like i said in my offspring "defy you" tab, i might have fixed this tab up, but it isnt all my work. i am not doing this for nething, but i just want system of a down tabs!

Author/Artist: soad
Title: deer dance
Album: toxicity

as normal this is pretty crap, but it give an idea
/ = slide up
\ = slide down

------------------------------------------------------------------------------
------------------------------------------------------------------------------
------------------------------------------------------------------------------
-1-0-1-0-0h1p0-1--------------------------------------------------------------
-1-0-1-0-0h1p0-1--------------------------------------------------------------
-1-0-1-0-0h1p0-1--------------------------------------------------------------
 intro                                                                        
[ Tab from: http://www.guitartabs.cc/tabs/s/system_of_a_down/deer_dance_tab_ver_2.html ]
------------------------------------------------------------------------------
------------------------------------------------------------------------------
-------------7----------------------------------------------------------------
------------------------------------------------------------------------------
------------------------------------------------------------------------------
-5/8\3/7\1/5------------------------------------------------------------------
 verse riff                                                                   

------------------------------------------------------------------------------
------------------------------------------------------------------------------
---3-2---5-3-2----------------------------------------------------------------
-5-----5-------5--------------------------------------------------------------
------------------------------------------------------------------------------
------------------------------------------------------------------------------
 a deer dance... then some other parts like this                              

Comments