System Of A Down - Deer Dance Chords & Tabs

 

Deer Dance Chords & Tabs

System Of A Down Chords & Tabs

Version: 1 Type: Tab 5 ratings
1 star 2 stars 3 stars 4 stars 5 stars
comments

Deer Dance Tab

   
Song: "Deer Dance"
Artist: System of A Down
Album: Toxicity
Transcribed By: Bryan Bramlett (bryanmb87@aol.com)

Tuning: Drop D, 1 Step Down (C,G,C,F,A,D)

INTRO: (palm mute)
|------------------------------|
|------------------------------|
|------------------------------|
|------------------------------|
|-110-110-110-1--110-110-110-1-|
|-110-110-110-1--110-110-110-1-|
PM... ... ...    ... ... ...

MAIN RIFF:
|--------------------------------------------------------------|
|--------------------------------------------------------------|
|--------------------------------------------------------------|
|-1-0-1-0-1-0-1-0-1-0-1-0-1-0-1-0-1-0-1-0-1-0-1--1-0-1-0-1-0-1-|
|-1-0-1-0-1-0-1-0-1-0-1-0-1-0-1-0-1-0-1-0-1-0-1--1-0-1-0-1-0-1-|
|-1-0-1-0-1-0-1-0-1-0-1-0-1-0-1-0-1-0-1-0-1-0-1--1-0-1-0-1-0-1-|
PM. . . . . . . . . . . . . . . . . . . . . .    . . . . . .

VERSE:
|-------------------------|
|-------------------------|
|-------------------------|
|----------------------|
|-------------------------|
|-5-5/8--3-3/7--1-1/5-----|
[ Tab from: http://www.guitartabs.cc/tabs/s/system_of_a_down/deer_dance_tab.html ]
VERSE: (slide between palm muted notes)
|--------------------------------------------------------------|
|--------------------------------------------------------------|
|--------------------------------------------------------------|
|-----------------------------------------------------------|
|--------------------------------------------------------------|
|-55558888333377771111555500000000-555588883333777711115555----|
PM................................ ........................

INTERLUDE:
|----------------------|
|-10-9------13-10-9----|
|------9---------------|
|--------12---------12-|
|----------------------|
|----------------------|

INTERLUDE B:
|---------------------------------------------------------------------|
|-----------10-9------13-10-9-/11-11-11-11-11/13-13-13-13-13/15-15-15-|
|-15-14-12-------9----------------------------------------------------|
|------------------12-------------------------------------------------|
|---------------------------------------------------------------------|
|---------------------------------------------------------------------|

|-------------------|
|-16-15-13----------|
|----------14-15-14-|
|-------------------|
|-------------------|
|-------------------|

INTERLUDE FILL :
|-------------|
|-------------|
|-15-14-15-14-|
|-------------|
|-------------|
|-------------|

INTERLUDE C:
|-------------------------|
|-------------------------|
|-15-15-15-14-14-14-14-14-|
|-------------------------|
|-------------------------|
|-------------------------|

OUTRO:
|-------------------------------|
|-------------------------------|
|-------------------------------|
|-1-0-1-0-1-0-1-0-1-0-1-0-1-0-1-|
|-1-0-1-0-1-0-1-0-1-0-1-0-1-0-1-|
|-1-0-1-0-1-0-1-0-1-0-1-0-1-0-1-|
PM. . . . . . . . . . . . . .

Comments