System Of A Down - Deer Dance Chords & Tabs

 

Deer Dance Chords & Tabs

System Of A Down Chords & Tabs

Version: 3 Type: Bass Tab 0 ratings
1 star 2 stars 3 stars 4 stars 5 stars
comments

Deer Dance Bass Tab

Artist: System Of A Down
Song Name: Deer Dance
Tuning: Drop C
Tabbed By:Pillie (pillie2001@hotmail.com)

Riff 1
|-----------------|-----------------|-----------------|-----------------|
|-----------------|-----------------|-----------------|-----------------|
|-----------------|-----------------|-----------------|-----------------|
|-1-0-1-0-1-0-1---|-1-0-1-0-1-0-1---|-1-0-1-0-1-0-1---|-1-0-1-0-1-0-1---|

|-----------------|-----------------|-----------------|-----------------|
|-----------------|-----------------|-----------------|-----------------|
|-----------------|-----------------|-----------------|-----------------|
|-1-0-1-0-1-0-1-0-|-1-0-1-0-1-0-1-0-|-1-0-1-0-1-0-1---|-1-0-1-0-1-0-1---|

Riff 2
|-----------------------|
|-----------------------|
|-----------------------|
|--5/8---3/7---1/5---0--|
[ Tab from: http://www.guitartabs.cc/tabs/s/system_of_a_down/deer_dance_btab_ver_3.html ]
Riff 3
|-----------------|-----------------|-----------------|-----------------|
|-----------------|-----------------|-----------------|-----------------|
|-----------------|-----------------|-----------------|-----------------|
|-5-5-5-5-5-5-5-5-|-5-5-5-5-5-5-5-5-|-5-5-5-5-5-5-5-5-|-5-5-5-5-5-5-5-5-|


Riff 4
|-----------------|-----------------|-----------------|-----------------|
|-----------------|-----------------|-----------------|-----------------|
|-----------------|-----------------|-----------------|-----------------|
|-5-5-5-5-5-5-5-5-|-5-5-5-5-5-5-5-5-|-5-5-5-5-5-5-5-5-|-5-5-5-5-5-5-5-5-|

|-----------------|-----------------|-----------------|-----------------|
|-----------------|-----------------|-----------------|-----------------|
|-----------------|-----------------|-----------------|-----------------|
|-3-3-3-3-3-3-3-3-|-3-3-3-3-3-3-3-3-|-3-3-3-3-3-3-3-3-|-3-3-3-3-3-3-3-3-|


Riff 5
|-----------------|-----------------|-----------------|-----------------|
|-----------------|-----------------|-----------------|-----------------|
|-----------------|-----------------|-----------------|-----------------|
|-1-0-1-0-1-0-1-0-|-1-0-1-0-1-0-1---|-1-0-1-0-1-0-1-0-|-1-0-1-0-1-0-1---|



Riff 1 * 1 - INTRO

Riff 2 * 10
Riff 1 * 1 - CHORUS

Riff 2 * 10
Riff 1 * 1

Riff 3 * 1
Riff 4 * 3
Riff 3 * 1

SILENCE

Riff 1 * 1
Riff 5 * 4
Comments